Song name
# A B C D E F G H I J K L M N O P Q R S T U V W X Y Z

Phish - Talk tab

-------------------------------------------------------------------------------
                             TALK - Phish
-------------------------------------------------------------------------------
Tabbed by:justiso715    
E-mail:

Tuning: Open C
Let ring throughout

Intro
e|-----------------------------------------------------------------------------------|
C|-----------0-------------------0-------------------0-------------------0-----------|
G|-------0-------0-----------0-------0-----------0-------0-----------0-------0-------|
C|---0-------------------0-------------------0-------------------0-------------------|
G|-------------------0-------------------0-------------------0-------------------0---|
C|---0-------------------0-------------------0-------------------0-------------------|


**************************************************************************************

Verse
e|-----------------------------------------------------------------------------------|
C|-----------0-------------------0-------------------0-------------------0-----------|
G|-------0-------0-----------0-------0-----------0-------0-----------0-------0-------|
C|---0------------------11------------------10-------------------9-------------------|
G|-------------------0-------------------0-------------------0-------------------0---|
C|---0-------------------0-------------------0-------------------0-------------------|

e|-----------------------------------------------------------------------------------|
C|-----------0-------------------0-------------------0-------------------0-----------|
G|-------0-------0-----------0-------0-----------0-------0-----------0-------0-------|
C|---8-------------------7-------------------6-------------------5-------------------|
G|-------------------0-------------------0-------------------0-------------------0---|
C|---0-------------------0-------------------0-------------------0-------------------|

Sorry, thatís all I have so far! 
Still working on the other sections, should have them up soon!
Tap to rate this tab
 
# A B C D E F G H I J K L M N O P Q R S T U V W X Y Z