Song name
# A B C D E F G H I J K L M N O P Q R S T U V W X Y Z

Phish - Waste tab

-------------------------------------------------------------------------------
                             Waste - Phish
-------------------------------------------------------------------------------
Tabbed by: Matthew Lawson
E-mail: triplelmatt1992@gmail.com

Tuning: EADGBE
Intro
e|-3--x--3--x--3--x--3--x--0--x--0--1--0--0--1--x--1--1--x--1--0--0--0--0------|
B|-1--x--1--x--0--x--0--x--1--x--1--1--1--3--1--x--1--1--x--1--1--1--1--1------|
G|-0--x--0--x--0--x--0--x--3--x--3--2--3--0--2--2--2--1--1--1--0--0--0--0------|
D|-2--2--2--2--2--2--2--2--2--2--2--2--2--2--3--3--3--3--3--3--2--2--2--2------|
A|-3--3--3--3--3--3--3--3--3--3--3--3--3--3--------------------3--3--3--3------|
E|-----------------------------------------------------------------------------|
  Verse x2
e|-3--x--3--x--3--x--3--x--0--x--0--1--0--0--1--x--1--1--x--1--0--0--0--0------|
B|-1--x--1--x--0--x--0--x--1--x--1--1--1--3--1--x--1--1--x--1--1--1--1--1------|
G|-0--x--0--x--0--x--0--x--3--x--3--2--3--0--2--2--2--1--1--1--0--0--0--0------|
D|-2--2--2--2--2--2--2--2--2--2--2--2--2--2--3--3--3--3--3--3--2--2--2--2------|
A|-3--3--3--3--3--3--3--3--3--3--3--3--3--3--------------------3--3--3--3------|
E|-----------------------------------------------------------------------------|
  x2
e|-1--1--1--1--1--1---0--0---------------------------------------------------|
B|-1--1--1--1--1--1---1--1---------------------------------------------------|
G|-2--2--2--1--1--1---0--0---------------------------------------------------|
D|-3--3--3--3--3--3---2--2---------------------------------------------------|
A|--------------------3--3---------------------------------------------------|
E|---------------------------------------------------------------------------|

*** These are all the chords in the song. Repeat verse and perverse. Strumming pattern 
could be wrong. Please email comments and suggestions to triplelmatt1992@gmail.com. This 
is my first tab so leave feedback.

************************************

| /   slide up
| \   slide down
| h   hammer-on
| p   pull-off
| ~   vibrato
| +   harmonic
| x   Mute note
| b   Bend
| pb  Pre-bend
| br  Bend release
| pbr Pre-bend release
| brb Bend release bend

************************************
Tap to rate this tab
 
# A B C D E F G H I J K L M N O P Q R S T U V W X Y Z