Song name
# A B C D E F G H I J K L M N O P Q R S T U V W X Y Z

Phish - Big Black Furry Creature From Mars tab

phish big black furry creature from mars
from phish
album, Hampton comes alive


verses/intro
e-------------------------------------------------------------------|
B-------------------------------------------------------------------|
G-------------------------------------------------------------------|
D-------------------------------------------------------------------|
A--5--6--7----5--6--7----5--6--7------------------------------------|
E--3--4--5----3--4--5----3--4--5------------------------------------|
                                 repeat___________________
when they come from mars what do i do...

keep repeating untill he gets to the chorus

chorus
e------------------------------------------------------------------|
A------------------------------------------------------------------|
G------------------------------------------------------------------|
D------------------------------------------------------------------|
A--5-10--9--5--3---------------------------------------------------|
E--3--8--7--3--1---------------------------------------------------|
cause you're a big black furry creature from mars x 4

repeat verses

by sean~~~~~~~~~
Tap to rate this tab
# A B C D E F G H I J K L M N O P Q R S T U V W X Y Z