Song name
# A B C D E F G H I J K L M N O P Q R S T U V W X Y Z

Phish - Bathtub Gin tab

E-8~~~-----------------------------------------------------
Phish
Bathtub Gin (solo)

B-----8~~~10-11-10-11-10~~~-----8~---------------------------|
G--------------------------9-10---10-9~~~8-9-10-8-9----------| x2
D---------------------------------------------------10-8~~~--|
A------------------------------------------------------------|
E------------------------------------------------------------|

E------------8------------------8-10-8----------|
B---------10---11-9-10----10-11-----------------|
G-9-10-10--------------10-----------------8~~~~-|
D--------------------------------------10-------|
A-----------------------------------------------|
E-----------------------------------------------|

E-8~~~------------------------------------------------------|
B-----8~~~10-11-10-11-10~~~-----8~--------------------------|
G--------------------------9-10---10-9~~~8-9-10-8-9---------|
D---------------------------------------------------10-8~~~-|
A-----------------------------------------------------------|
E-----------------------------------------------------------|
Tap to rate this tab
# A B C D E F G H I J K L M N O P Q R S T U V W X Y Z