Song name
# A B C D E F G H I J K L M N O P Q R S T U V W X Y Z

Phish - Bouncing Round The Room tab

This shall be my first tab.  This is just the very end peice that Trey plays.
I thought I would give it a try...It is played pretty quickly and each note is picked cleanly.......

E---17--14----------17--14----------17--14----------17--14-------------------|
B-----------17--15----------17--15----------17--15----------17--15-----------|
G----------------------------------------------------------------------------|
D----------------------------------------------------------------------------|
A----------------------------------------------------------------------------|
E----------------------------------------------------------------------------|

E---17--14----------17--14----------17--14----------17--14-------------------|
B-----------17--14----------17--14----------17--14----------17--14-----------|
G----------------------------------------------------------------------------|
D----------------------------------------------------------------------------|
A----------------------------------------------------------------------------|
E----------------------------------------------------------------------------|

E---15--12----------15--12----------15--12----------15--12-------------------|
B-----------15--13----------15--13----------15--13----------15--13-----------|
G----------------------------------------------------------------------------|
D----------------------------------------------------------------------------|
A----------------------------------------------------------------------------|
E----------------------------------------------------------------------------|

E---15--12----------15--12----------15--12----------15--12-------------------|
B-----------15--12----------15--12----------15--12----------15--12-----------|
G----------------------------------------------------------------------------|
D----------------------------------------------------------------------------|
A----------------------------------------------------------------------------|
E----------------------------------------------------------------------------|

There you have it... Play that a couple dozen times to round off the song and thats 
 Hope my first tab was helpful in some manner... Simple but fun to play...
Tap to rate this tab
# A B C D E F G H I J K L M N O P Q R S T U V W X Y Z