Song name
# A B C D E F G H I J K L M N O P Q R S T U V W X Y Z

Phish - Whats The Use tab

-----------------------------------------------------------------------------
			     What's The Use? - Phish
-----------------------------------------------------------------------------

Song: What's The Use?
Album: The Siket Disc
Artist: Phish


Tabbed by: Pauly S
Email: Pscarinci@aol.com


FB= Feedback  H-O Hammer-on   P-O Pull-off   S Slide

 H-O-P-O   P-O            H-O-----------------------------------|                   H-O   S
E---------------------------------------------------------------|
B-10 11 10------------------------------------------------------|
G-----------12 11-FB-------11 12--11----------------------------|
D------------------------------------12-------7  9 10--9\10--9--|
A--------------------------------------12-FB--------------------|
E---------------------------------------------------------------|

                                    S      H-O-P-O   S
E-------------------------------------------------------------|
B------------10-FB-------10--12-13--12\13--12 13 12--8\ 10-FB-|
G-9-7-FB------------------------------------------------------|
D-------------------------------------------------------------|
A-------------------------------------------------------------|
E-------------------------------------------------------------|

  S                                   S
E----------------------------------------------|
B-------------10-12-13--12-13--12--10--8\ 10---|
G-/11--14-FB-----------------------------------|
D----------------------------------------------|
A----------------------------------------------|
E----------------------------------------------|

                                S
E-------------------------------------------------------|
B-------------------------------------------------------|
G----15-FB---15-14--12-11-FB---------15-FB--12-11-FB----|
D-12----------------------------/12---------------------|
A-------------------------------------------------------|
E-------------------------------------------------------|

=============================================================================
Tap to rate this tab
# A B C D E F G H I J K L M N O P Q R S T U V W X Y Z