Song name
# A B C D E F G H I J K L M N O P Q R S T U V W X Y Z

Phish - Albert tab

-----------------------------------------------------------------------------
			     Albert - Phish
-----------------------------------------------------------------------------
Tabbed by: Pauly S
Email: pscarinci@aol.com

Intro:

e|-----------------------------------------------------------------|
B|-2-------2--2--2----2-----2----2--2--2--2------------------------|
G|-2-------2--2--2----2-----2----2--2--2--2------------------------|
D|-2-------2--4--5----5-------------5--3--2------------------------|
A|-0-------0--0--0----0-------------0--0--0------------------------|
E|-0-------0--0--0----0-------------0--0--0------------------------|



Main Section:
Let Ring
e|-----------------------------------------------------------------|
B|--------------------2--------------------------------------------|
G|-4-4/6-4-4/6-4-4/6--2----4-4/6-----------------------------------|
D|--------------------2----2---------------------------------------|
A|-0-0---0-0---0-0----0----0---------------------------------------|
E|--------------------0--------------------------------------------|

=============================================================================
Tap to rate this tab
# A B C D E F G H I J K L M N O P Q R S T U V W X Y Z