Song name
# A B C D E F G H I J K L M N O P Q R S T U V W X Y Z

Phish - Pebbles And Marbles tab

Highlighted       Show chord diagrams
-----------------------------------------------------------------------------
			 Phish - Pebbles and Marbles
-----------------------------------------------------------------------------
Tabbed by: Andrew Spies
Email: nonesupplied@gmail.com

Intro: 


E :-----0---3^-0-0--|----------------|
B :0-h3---0-------3-|2---------------|
G :---------------4-|2---------------|
D :-----------------|----------------|
A :-----------------|----------------|
E :-----------------|----------------|

E :-----------------|-------------------|-------------------|
B :0-5-9---9---7--5-|0---0---0-5-9---9--|7-5-0-------0-5-12-|
G :----------9------|------------------9|-------------------|
D :2-6-9-9-----7--6-|2-2---2-2-6-9-9----|7-6-2---2---2-6-12-|
A :-----------------|-------------------|-------------------|
E :0-0-0-------0--0-|0-------0-0-0------|0-0-0-0---0-0-0--0-|

E :--------------------------------|---------------------|
B :---12----12-10----10----10-13-12|-10-12-9-7---7---7---|
G :--------------------------------|---------------------|
D :12----12----11-11----11----14-12|-11-10-9-7-7---7-----|
A :--------------------------------|---------------------|
E :-------------0--------------0--0|--0--0-0-7-----------|



Em                       G
She started a blaze from one tiny spark
C                     (opening riff)
I didn't even detect
Em                       D
She loved the light, was dismayed by the dark
G                              A
The stars though she seemed to respect

    A                            Em
The faint light that flutters at night to the earth
G                          D
Would land in her eyes and collect
A                        Em
Luminous creatures she'd find in the surf
G                  D
I never thought to inspect

A                          Em
Pebbles and marbles like things on my mind
G                     D
Seem to get lost and harder to find
A                 Em
When I am alone I am inclined
G                         D
If I find a pebble in the sand
Cmaj7                              (opening riff)
To think that it fell from my hand

Em                 G
She gave me ideas, planted the seed
C                                (opening riff)
But she never stopped to reflect
Em                        D
The course that she's on, wherever it leads
G                  A
I never would redirect

A                        Em
Pebbles and marbles like words from a friend
G                          D
Make us hold tight but are lost in the end
A                   Em
When we're alone we all seem to tend
G                      D
If we find a marble in dust
Cmaj7
To wish someone left it for us

A                          Em
Pebbles and marbles like things on my mind
G                     D
Seem to get lost and harder to find
A                 Em
When I am alone I am inclined
G                         D
If I find a pebble in the sand
Cmaj7                               
To think that it fell from my hand
Tap to rate this tab
 
# A B C D E F G H I J K L M N O P Q R S T U V W X Y Z