Song name
# A B C D E F G H I J K L M N O P Q R S T U V W X Y Z

Phish - 2001 tab

HERE IS THE SONG WITH THE FUNKY JAM STUFF. ENJOY
QUESTIONS OR COMMENTS EMAIL AT firefighter42000@hotmail.com 

INTRO: STARTS OFF JAMMING IN Cm7 
Cm7                                                         
-8-
-8-
-8-  
-8-
-10-
-8-
TREY THROWS IN A SIXTH ALONG WITH CHORD TO FUNK IT UP

HERE IS THE TAB WITH THE SIXTH OR "A" NOTE WITH EASY FINGERING

E]--8-----8------8-------8------------|
B]--8-----8------10------8------------|
G]--8-----8------8-------8------------|
D]------------------------------------|
A]------------------------------------|
E]------------------------------------| 

THE RIFF: TREY USES THE OCTAVE NOTE TO ACCENT THE 5--4, 4--5, 5--6, PARTS LIKE SO:

E]--------8---------------------------|
B]-----8-----5--4---------------------|
G]--5---------------------------------|
D]-----------2--1---------------------|
A]------------------------------------|
E]------------------------------------|

JAM OUT IN Cm7

E]--------8---------------------------|
B]-----8-----4--5---------------------|
G]--5---------------------------------|
D]-----------1--2---------------------|
A]------------------------------------|
E]------------------------------------|

more Cm7 jam then the climax...

E]--------8-------------------------10--12--13--15----12--13--15---17--19-20-|
B]-----8-----5--6-------10--12--13-------------------------------------------|
G]--5------------------------------------------------------------------------|
D]-----------2--3------------------------------------------------------------|
A]---------------------------------------------------------------------------|
E]---------------------------------------------------------------------------|
Tap to rate this tab
# A B C D E F G H I J K L M N O P Q R S T U V W X Y Z