Song name
# A B C D E F G H I J K L M N O P Q R S T U V W X Y Z

Phoebe Buffet - Monica tab

Here's the opening riff. When they play it live they usually use a wah-pedal.

E------------------------------------|
B------------------------------------|
G------------------------------------|
D-----1/5\3--------------------------|
A--1-3-------1-3--1-3-1-3-1-3-1------|
E-----------3------------------3-1-3-|


Then at 3:50 they play this

E--------------------------------|
B--------------------------------|
G-----3-2------------------------|
D----3----3---3-5-3-5-3-5-3------|
A-3-5----5-----------------5-3-5-|
E--------------------------------|


Then at 4:03 they play this

E---------------------|
B---------------------|
G-3-5-3-5-----3-3-----|
D--------3-1-5-5-5----|
A-----------------5-3-|
E---------------------|

Thats it! Its a pretty sweet song, one of my favorites from Tortoise. Have any
comments- grant.kugman@loop.colum.edu
Tap to rate this tab
# A B C D E F G H I J K L M N O P Q R S T U V W X Y Z