Song name
# A B C D E F G H I J K L M N O P Q R S T U V W X Y Z

Phoenix - North tab

Help us improve GuitareTab! Take a short survey!
Artist: Phoenix
Song: North
Tabbed by: Charles Clark
Tuning: D-A-D-G-B-e

Ok this is quite simple... Its just a loop with variations...


|-   Part1   -|
e--------------|
B--------------|
G-----2-----2--|   X4
D--------------|
A--------4-----|
D--4-----------|

e--------------|
B--------------|
G-----9-----9--|   X4
D--------------|
A--------11----|
D--11----------|

e--------------|
B--------------|
G-----4-----4--|   X4
D--------------|
A--------6-----|
D--6-----------|


|-   Part2   -|
e--------------|
B--------------|
G-----2-----2--|   X4
D--------------|
A--------4-----|
D--4-----------|

e--------------|
B--------------|
G-----9-----9--|   X4
D--------------|
A--------11----|
D--11----------|

e--------------|
B--------------|
G-----8-----8--|   X4
D--------------|
A--------9-----|
D--9-----------|


And thats just about it... Here is a small variation that is found


(1:04)


|- Part1 VAR.-|
e--------------         e--------------|
B--------------         B--------------|
G-----2-----2--   X2    G-----4-----4--|   X2
D--------------         D--------------|
A--------4-----         A--------4-----|
D--4-----------         D--4-----------|

e--------------         e--------------|
B--------------         B--------------|
G----11-----11-   X2    G-----9-----9--|   X2
D--------------         D--------------|
A--------11----         A--------11----|
D--11----------         D--11----------|

e--------------|
B--------------|
G-----4-----4--|   X4
D--------------|
A--------6-----|
D--6-----------|


There are a few other variations, but dont differ much from this one.
Just listen to understand...


The End...


Thanks for checking out my tabs...
for any questions or comments/corrections my email is;
chuckbclark@hotmail.com
Related for North tab