Song name
# A B C D E F G H I J K L M N O P Q R S T U V W X Y Z

Phoenix - 1901 tab

-----------------------------------------------------------------------------
			                             1901 - Phoenix
-----------------------------------------------------------------------------
Tabbed by:
Email: chemicaltsk@gmail.com

Tuning: Standard (EADGBe)

This is the organ part and it occurs throughout the entire song.

e|--------------------------------------------------------------------------|
B|--------------------------------------------------------------------------|
G|--10-10-10-10-10----------------------------------------------------------|
D|--10-10-10-10-10----7-7-7-7-7---10-10-10-10-10----7-7-7-7-7---------------|
A|---8--8--8--8--8----7-7-7-7-7---10-10-10-10-10----5-5-5-5-5---------------|
E|--------------------5-5-5-5-5----8--8--8--8--8----5-5-5-5-5---------------|

e|--------------------------------------------------------------------------|
B|--------------------------------------------------------------------------|
G|--10-10-10-10-10----------------------------------------------------------|
D|--10-10-10-10-10----7-7-7-7-7---10-10-10-10-10----10-10-10-10-10----------|
A|---8--8--8--8--8----7-7-7-7-7---10-10-10-10-10----10-10-10-10-10----------|
E|--------------------5-5-5-5-5----8--8--8--8--8-----8--8--8--8--8----------|






************************************

| /   slide up
| \   slide down
| h   hammer-on
| p   pull-off
| ~   vibrato
| +   harmonic
| x   Mute note
| b   Bend
| pb  Pre-bend
| br  Bend release
| pbr Pre-bend release
| brb Bend release bend

************************************
Tap to rate this tab
 
# A B C D E F G H I J K L M N O P Q R S T U V W X Y Z