Song name
# A B C D E F G H I J K L M N O P Q R S T U V W X Y Z

Phoenix - 1901 Acoustic tab

My take on 1901 acoustic by phoenix. Alter it to your wishes, for example you can use 
chords instead. Whatever sounds best for you.


Strum down on the mute then up down up down up, then palm mute it

      down up down up down up
        v   ^   v   ^  v   ^  (pm)
e|-----x-------------------------|
B|-----x---10--10--10--10--10----|
G|-----x---10--10--10--10--10----|
D|-----x---10--10--10--10--10----|
A|-----x----8---8---8---8---8----|
E|-----x-------------------------|


Intro:
                         (pm)                   (pm)                    (pm)
e|--x----------------------------x-----------------------x------------------|
B|--x--10--10--10--10--10--------x--5--5--5--5--5--------x--5--5--5--5--5---|
G|--x--10--10--10--10--10--------x--5--5--5--5--5--------x--5--5--5--5--5---|
D|--x--10--10--10--10--10--------x--5--5--5--5--5--------x--5--5--5--5--5---|
A|--x---8---8---8---8---8--------x--x--x--x--x--x--------x--3--3--3--3--3---|
E|--x----------------------------x--5--5--5--5--5--------x------------------|

                    (pm)
e|--x--------------------------|
B|--x--5--5--5--5--5-----------|
G|--x--5--5--5--5--5-----------| x2
D|--x--5--5--5--5--5-----------|
A|--x--3--3--x--x--x-----------|
E|--x--------5--5--5-----------|


Verse:
          Counting  all  different  ideas  drifting  away...
                         (pm)                   (pm)                    (pm)
e|--x----------------------------x-----------------------x------------------|
B|--x--10--10--10--10--10--------x--5--5--5--5--5--------x--5--5--5--5--5---|
G|--x--10--10--10--10--10--------x--5--5--5--5--5--------x--5--5--5--5--5---|
D|--x--10--10--10--10--10--------x--5--5--5--5--5--------x--5--5--5--5--5---|
A|--x---8---8---8---8---8--------x--x--x--x--x--x--------x--3--3--3--3--3---|
E|--x----------------------------x--5--5--5--5--5--------x------------------|

                    (pm)
e|--x--------------------------|
B|--x--5--5--5--5--5-----------|
G|--x--5--5--5--5--5-----------| x4
D|--x--5--5--5--5--5-----------|
A|--x--3--3--x--x--x-----------|
E|--x--------5--5--5-----------|


Chorus:
                      It's twenty seconds till the last call...
e|------------------------------------------------------------|
B|------------------------------------------------------------|
G|--10--10--x---9---9---x--10--10--x---9---9--x--10--x---9----|  x6
D|--10--10--x--10--10---x--10--10--x--10--10--x--10--x--10----|
A|---8---8--x--10--10---x---8---8--x--10--10--x---8--x--10----|
E|----------x---8---8---x----------x---8---8--x------x---8----|


         It's not a miracle we needed...
e|---8---|
B|---8---|
G|---9---| x16     ----------(strum upwards)
D|--10---|
A|--10---|
E|---8---|


Post Chorus:
    Folded     Folded     Folded     Folded     Folded...
                         (pm)                   (pm)                    (pm)
e|--x----------------------------x-----------------------x------------------|
B|--x--10--10--10--10--10--------x--5--5--5--5--5--------x--5--5--5--5--5---|
G|--x--10--10--10--10--10--------x--5--5--5--5--5--------x--5--5--5--5--5---|
D|--x--10--10--10--10--10--------x--5--5--5--5--5--------x--5--5--5--5--5---|
A|--x---8---8---8---8---8--------x--x--x--x--x--x--------x--3--3--3--3--3---|
E|--x----------------------------x--5--5--5--5--5--------x------------------|

                    (pm)
e|--x--------------------------|
B|--x--5--5--5--5--5-----------|
G|--x--5--5--5--5--5-----------| x2
D|--x--5--5--5--5--5-----------|
A|--x--3--3--x--x--x-----------|
E|--x--------5--5--5-----------|


Verse:
            Girlfriend, you know your girlfriends drifting away...
                         (pm)                   (pm)                    (pm)
e|--x----------------------------x-----------------------x------------------|
B|--x--10--10--10--10--10--------x--5--5--5--5--5--------x--5--5--5--5--5---|
G|--x--10--10--10--10--10--------x--5--5--5--5--5--------x--5--5--5--5--5---|
D|--x--10--10--10--10--10--------x--5--5--5--5--5--------x--5--5--5--5--5---|
A|--x---8---8---8---8---8--------x--x--x--x--x--x--------x--3--3--3--3--3---|
E|--x----------------------------x--5--5--5--5--5--------x------------------|

                    (pm)
e|--x--------------------------|
B|--x--5--5--5--5--5-----------|
G|--x--5--5--5--5--5-----------| x4
D|--x--5--5--5--5--5-----------|
A|--x--3--3--x--x--x-----------|
E|--x--------5--5--5-----------|


Chorus:
                      It's twenty seconds till the last call...
e|------------------------------------------------------------|
B|------------------------------------------------------------|
G|--10--10--x---9---9---x--10--10--x---9---9--x--10--x---9----|  x6
D|--10--10--x--10--10---x--10--10--x--10--10--x--10--x--10----|
A|---8---8--x--10--10---x---8---8--x--10--10--x---8--x--10----|
E|----------x---8---8---x----------x---8---8--x------x---8----|


         It's not a miracle we needed...
e|---8---|
B|---8---|
G|---9---| x16      ----------(strum upwards)
D|--10---|
A|--10---|
E|---8---|


Post Chorus:
    Folded     Folded     Folded     Folded     Folded...
                         (pm)                   (pm)                    (pm)
e|--x----------------------------x-----------------------x------------------|
B|--x--10--10--10--10--10--------x--5--5--5--5--5--------x--5--5--5--5--5---|
G|--x--10--10--10--10--10--------x--5--5--5--5--5--------x--5--5--5--5--5---|
D|--x--10--10--10--10--10--------x--5--5--5--5--5--------x--5--5--5--5--5---|
A|--x---8---8---8---8---8--------x--x--x--x--x--x--------x--3--3--3--3--3---|
E|--x----------------------------x--5--5--5--5--5--------x------------------|

                    (pm)
e|--x--------------------------|
B|--x--5--5--5--5--5-----------|
G|--x--5--5--5--5--5-----------| x4
D|--x--5--5--5--5--5-----------|
A|--x--3--3--x--x--x-----------|
E|--x--------5--5--5-----------|


Outro:
e|-------|
B|--10---|
G|--10---|   (you could also repeat the chorus once instead)
D|--10---|
A|---8---|
E|-------|
Tap to rate this tab
# A B C D E F G H I J K L M N O P Q R S T U V W X Y Z