Song name
# A B C D E F G H I J K L M N O P Q R S T U V W X Y Z

Phoenix - 1901 tab

-------------------------------------------------------------------------------
			     1901 (INTRO) - Phoenix
-------------------------------------------------------------------------------

Tabbed by:Spencer B.
Email:

Tuning: Standard


    Gtr I
||--15-15-15-15-15-15-15-15-|-15-17-17-17-17-17-17-17-|
||o-17-17-17-17-17-17-17-17-|-17-17-17-17-17-17-17-17-|
||--------------------------|-------------------------|
||--------------------------|-------------------------|
||o-------------------------|-------------------------|
||--------------------------|-------------------------|
|
|   Synth Bass (Octave lower)
||--------------------------|-------------------------|
||o-------------------------|-------------------------|
||--------------------------|-------------------------|
||------------3--3--3--3--3-|-------------------------|
||o-------------------------|-----------0--0--0--0--0-|
||--------------------------|-------------------------|


|-15-15-15-15-15-15-15-15-|-15-15-15-15-15-17-17-17--|
|-17-17-17-17-17-17-17-17-|-17-17-17-17-17-17-17-17--|
|-------------------------|--------------------------|
|-------------------------|--------------------------|
|-------------------------|--------------------------|
|-------------------------|--------------------------|
|
|-------------------------|--------------------------|
|-------------------------|--------------------------|
|-------------------------|--------------------------|
|-------------------------|--------------------------|
|-----------3--3--3--3--3-|-----------0--0--0--0--0--|
|-------------------------|--------------------------|


|-12-12-12-12-12-12-12-12-|-12-15-15-15-15-15-15-15-|
|-13-13-13-13-13-13-13-13-|-13-13-13-13-13-13-13-13-|
|-------------------------|-------------------------|
|-------------------------|-------------------------|
|-------------------------|-------------------------|
|-------------------------|-------------------------|
|
|-------------------------|-------------------------|
|-------------------------|-------------------------|
|-------------------------|-------------------------|
|-----------3--3--3--3--3-|-------------------------|
|-------------------------|-----------0--0--0--0--0-|
|-------------------------|-------------------------|


|-12-12-12-12-12-12-12-12-|-12-12-12-12-12-12-12-12--||
|-13-13-13-13-13-13-13-13-|-13-13-13-13-13-13-13-13-o||
|-------------------------|--------------------------||
|-------------------------|--------------------------||
|-------------------------|-------------------------o||
|-------------------------|--------------------------||
|
|-------------------------|--------------------------||
|-------------------------|-------------------------o||
|-------------------------|--------------------------||
|-------------------------|--------------------------||
|-----------3--3--3--3--3-|-----------3--3----------o||
|-------------------------|-----------------5--5--5--||
Tap to rate this tab
# A B C D E F G H I J K L M N O P Q R S T U V W X Y Z