Song name
# A B C D E F G H I J K L M N O P Q R S T U V W X Y Z

Phoenix - Lasso tab

Song: Lasso
Artist: Phoenix
       Standard Tuning. EADGbe
**Everything is tabbed except for the solo. Sorry. P;**
 I made this NOVICE because its not the little intricate parts of the song,
but just the rhythm.

Guitar Intro:
e|---7-66-7-66-7-6-7-66-7-66-7-------------------------------|
b|-----------------------------------------------------------|
G|-----------------------------------------------------------|
D|-----------------------------------------------------------|
A|-----------------------------------------------------------|
E|-----------------------------------------------------------|

Verse
Guitar: [originally played with a Bass]
e|-----------------------------------------------------------|
b|-----------------------------------------------------------|
G|-----------------------------------------------------------|
D|-------9----9----/----6---6-6------------------------------|
A|----7----77-----/--4---4--4---6--6----9-/----4-------------|
E|-----------------------------4-44---7-/---22---------------|

Chords for Verse
e|-----------------------------------------------------------|
b|-----5-----------------------------------------------------|
G|--9--6-----8-/--3------------------------------------------|
D|--9--6--6--9-/--4------------------------------------------|          x4
A|--7--4--6--9-/--4------------------------------------------|
E|--------4--7-/--2------------------------------------------|

Pre-Chorus
e|-----------------------------------------------------------|
b|-----------------------------------------------------------|
G|--999---------------------999-------------11111------------|
D|--999--999-111111---------999--999--------11111------------|
A|--777--999-111111--999----777--999--1111--99999------------|
E|-------777--999----777---------777---99--------------------|

Chorus
e|-----------------------------------------------------------|
b|-----------------------------------------------------------|
G|--9--11--13------------------------------------------------|
D|--9--11--13--11--9-11--9-----------------------------------|      x2
A|--7--9---11--11--9-11--9-----------------------------------|
E|--------------9--7--9--7-----------------------------------|

**No guitar for a couple seconds**

Chords for Verse
e|-----------------------------------------------------------|
b|-----5-----------------------------------------------------|
G|--9--6-----8-/--3------------------------------------------|
D|--9--6--6--9-/--4------------------------------------------|          x4
A|--7--4--6--9-/--4------------------------------------------|
E|--------4--7-/--2------------------------------------------|

Chorus
e|-----------------------------------------------------------|
b|-----------------------------------------------------------|
G|--9--11--13------------------------------------------------|
D|--9--11--13--11--9-11--9-----------------------------------|      x2
A|--7--9---11--11--9-11--9-----------------------------------|
E|--------------9--7--9--7-----------------------------------|

e|-----------------------------------------------------------|
b|-----------------------------------------------------------|
G|--999---------------------999-------------11111------------|
D|--999--999-111111---------999--999--------11111------------|
A|--777--999-111111--999----777--999--1111--99999------------|
E|-------777--999----777---------777---99--------------------|


 Interlude *I dont have the solo tabbed*
e|---7-66-7-66-7-6-7-66-7-66-7-------------------------------|
b|-----------------------------------------------------------|
G|-----------------------------------------------------------|
D|-----------------------------------------------------------|
A|-----------------------------------------------------------|
E|-----------------------------------------------------------|

e|-----------------------------------------------------------|
b|-----------------------------------------------------------|
G|-----------------------------------------------------------|     x4
D|-------9----9----/----6---6-6------------------------------|
A|----7----77-----/--4---4--4---6--6----9-/----4-------------|
E|-----------------------------4-44---7-/---22---------------|


Outro:
e|-----------------------------------------------------------|
b|-----------------------------------------------------------|
G|--999---------------------999-------------11111------------|
D|--999--999-111111---------999--999--------11111------------|
A|--777--999-111111--999----777--999--1111--99999------------|
E|-------777--999----777---------777---99--------------------|


Thanks! For any questions, just post them as a comment and I'll reply to them on my 
Crazy4CoCoPuffs :D
Tap to rate this tab
# A B C D E F G H I J K L M N O P Q R S T U V W X Y Z