Song name
# A B C D E F G H I J K L M N O P Q R S T U V W X Y Z

Phoenix - Playground Love tab

Tabbed by Xamax
No Capo
Standard Tuning

Intro
|------2-------2-----------------------0---------------0----------|
|--3-------------------3-------2---------------2---------------3--|
|----0-----0-------0-------0-------0-------0-------0-------0------|
|------------2-------2-------2-------2-------2-------2-------2----|
|-----------------------------------------------------------------|
|0-------0-------0-------0-------0-------0-------0-------0--------|

|------2---------------2----------------0--------------0----------|
|--------------3---------------2---------------2------------------|
|--0-------0-------0-------0-------0-------0-------0-------0---0--|
|----2-------2-------2-------2-------2-------2-------2------------|
|-----------------------------------------------------------------|
|0-------0-------0-------0-------0-------0-------0-------0---2----|

I'm a high school Lover
|------3---------------2---------------0---------------0----------|
|----------------------------------------------3---------------0--|
|--0-------0---0---2-------2---2---0-------0-------0-------0------|
|----0-------0-------1-------1-------2-------2-------2-------2----|
|----------------2-------2----------------------------------------|
|3-------3-----------------------0-------0-------0-------0--------|

And you're my favorite flavour~
|------2---------------2---------------0--------------------------|
|--1-------1---0---------------------------------------3-------2--|
|----2-------2-----2-------2---2---0-------0---0---0-------0------|
|1-------1-----------1-------1-------2-------2-------2-------2----|
|---------------0h2------2-------3-------3-------0-------0--------|
|-----------------------------------------------------------------|

|-----------------------------------------------------------------|
|------2-------0--------------------------------------------------|
|--0-------0------------------------------------------------------|
|----2-------2----------------------------------------------------|
|0-------0--------------------------------------------------------|
|-----------------------------------------------------------------|

Our love is all...all my soul
|------0-------------------------------0--------------------------|
|----------------------2-------0-----------------------2-------0--|
|--0-------0---0---0-------0-------0-------0---0---0-------0------|
|----2-------2-------2-------2-------2-------2-------2-------2----|
|3-------3-------0-------0-------3-------3-------0-------0--------|
|-----------------------------------------------------------------|

You're my playground love
|------0-----------------2---------------0-------------------------|
|----------------0-------------------------------3-------3---------|
|--0-------0---0-----2-------2---2---0-------0-------0-------0---0-|
|----1-------2---------1-------1-------2-------2-------2-----------|
|3-------3---------2-------2---------------------------------------|
|----------------------------------0-------0-------0-------0---2---|

And yet my hands are shaking
|------3---------------2-----------------------0------------------|
|--------------------------------------3---------------3-------0--|
|--0-------0---0---2-------2---2---0-------0-------0-------0------|
|----0-------0-------1-------1-------2-------2-------2-------2----|
|----------------2-------2----------------------------------------|
|3-------3-----------------------0-------0-------0-------0--------|

If feels my body remains~
|------2---------------2---------------0--------------------------|
|--1-------1---0-------------------------------3-------2-------0--|
|----2-------2-----2-------2---2---0-------0-------0-------0------|
|1-------1-----------1-------1-------2-------2-------2-------2----|
|---------------0h2------2-------3-------3-------0-------0--------|
|-----------------------------------------------------------------|

|-----------------------------------------------------------------|
|------2-------0--------------------------------------------------|
|--0-------0------------------------------------------------------|
|----2-------2----------------------------------------------------|
|0-------0--------------------------------------------------------|
|-----------------------------------------------------------------|

Times no matter...I'm on fire
|------0-------------------------------0--------------------------|
|----------------------2-------0-----------------------2-------0--|
|--0-------0---0---0-------0-------0-------0---0---0-------0------|
|----2-------2-------2-------2-------2-------2-------2-------2----|
|3-------3-------0-------0-------3-------3-------0-------0--------|
|-----------------------------------------------------------------|

On this playground love
|------0-------------------0---------------0----------------------|
|----------------0-----------------------3------------------------|
|--0-------0---0--------2--------------0-----0--------------------|
|----1-------2----------------------------------------------------|
|3-------3---------2----------------------------------------------|
|----------------------------------0-2---------0-2----------------|

And your the piece of gold
|------3---------------2---------------0---------------0----------|
|----------------------------------------------3---------------0--|
|--0-------0---0---2-------2---2---0-------0-------0-------0------|
|----0-------0-------1-------1-------2-------2-------2-------2----|
|----------------2-------2----------------------------------------|
|3-------3-----------------------0-------0-------0-------0--------|

That flashes on my soul~
|------2---------------2---------------0--------------------------|
|--1-------1---0---------------------------------------2-------0--|
|----2-------2-----2-------2---2---0-------0---0---0-------0------|
|1-------1-----------1-------1-------2-------2-------2-------2----|
|---------------0h2------2-------3-------3-------0-------0--------|
|-----------------------------------------------------------------|

|-----------------------------------------------------------------|
|------2-------0--------------------------------------------------|
|--0-------0------------------------------------------------------|
|----2-------2----------------------------------------------------|
|0-------0--------------------------------------------------------|
|-----------------------------------------------------------------|

Extra time...on the ground
|------0-------------------------------0--------------------------|
|----------------------2-------0-----------------------2-------0--|
|--0-------0---0---0-------0-------0-------0---0---0-------0------|
|----2-------2-------2-------2-------2-------2-------2-------2----|
|3-------3-------0-------0-------3-------3-------0-------0--------|
|-----------------------------------------------------------------|

Your my playground love
|------0-------------------0---------------0----------------------|
|----------------0-----------------------3------------------------|
|--0-------0---0--------2--------------0--------------------------|
|----1-------2----------------------------------------------------|
|3-------3---------2----------------------------------------------|
|----------------------------------0-2----------------------------|
Tap to rate this tab
# A B C D E F G H I J K L M N O P Q R S T U V W X Y Z