Song name
# A B C D E F G H I J K L M N O P Q R S T U V W X Y Z

Phosphorescent - Joe Tex These Taming Blues tab

Verse:
  C                        G
e|-------------------------------------------------|
B|-------1-----------1-----------0-----------0-----|
G|-----0---0-------0---0-----------0-----------0---|
D|---2-------2---2-------2-----0-----0-----0-----0-|
A|-3-----------3-------------2-----------2---------|
E|-------------------------3-----------3-----------|

PreChorus:
  G
e|---1-1-1---1-1-1---1-1-1---1-1-1---1-1-1---1-1-1---1-1-1---1-1-1---|
B|---0-0-0---0-0-0---0-0-0---0-0-0---0-0-0---0-0-0---0-0-0---0-0-0---|
G|---0-0-0---0-0-0---0-0-0---0-0-0---0-0-0---0-0-0-0-0-0-0-0-0-0-0---|
D|---------------------------------0-------0-------------------------|
A|-----------------2-------2-----------------------------------------|
E|-3-------3---------------------------------------------------------|

  C          C   B   Am  G
e|-0---------0---0---0---1---|
B|-1---------1---1---1---0---|
G|-0---------0---0---2---0---|
D|-2---------2---0---2---0---|
A|-3---------3---2---0---2---|
E|-0---------0---0---0---3---|


Verse:

      C
is it ever gonna not
                      G
be so hard to see you around
am i really, really, really, really gonna have to
                                          C
really gonna have to, really have to leave town   (woo)
i mean i called upon a bunch of angels
                                                         G
calling "angels, aint you supposed to come and take away these blues?
i mean we've came upon a bunch of rabies
                                              C
and there isn't nothing all us little animals can do

PreChorus:

             G                         
with all five kinds of reins and all nine kinds of thunderings

or eighteen white horses if won't none of them come to me"

C
C B Am G

Chorus:

      F                                    
don't plant no more feet, love, in that garden of blame
      G
don't break me no more, love, i'm already tame

Verse:

is it ever gonna stop
this trouble of just being around my friends
am i really, really, really gonna have to
really gonna have to, really have to leave town again
i mean, i layed myself upon the water
calling water ain't you supposed to come and save us all from all these flames?
i mean we're caught among the awful branches
and you know theyre burning us and yes, they're learning all of us's names

PreChorus:

i mean i stood your shore all wilted and wondering
aint you got no home for me? ain't you still sweet for me?

Chorus:

don't plant no more feet love in that forest of blame
don't break me no more love i'm already tame
Tap to rate this tab
# A B C D E F G H I J K L M N O P Q R S T U V W X Y Z