Song name
# A B C D E F G H I J K L M N O P Q R S T U V W X Y Z

Photek - Modus Operandi tab

PHOTEK Modus Operandi

http://www.youtube.com/watch?v=DLN1SpdbKnY
from the album Modus Operandi 1997

Tabbed by: Alain R
Email:eva1@mail.be

Tuning: standard

Themes played




Bass (part 1 )

G|-------------------------------------|
D|--------------------------0-2--------|
A|---2--------3----2-------------3-----|  REPEAT
E|-5---1--------5-----1----------------|


Bass (part 2 )in the middle of the song

G|-----------------------------------------------|
D|-7---5-3---------------------------------------|
A|---------5----------5---------------5-6-7------|
E|-----------5----------1-----10------------5----|



Guitar

e|-3/7----------|
B|-----8/5------|
G|--------------|
D|--------------|
A|--------------|
E|--------------|

 
 Piano ( on guitar )

e|-5-5-5-8-7-10-----5-5-5-8-7-8-7-10------5-5-5-8-7-------|
B|--------------------------------------------------------|
G|--------------------------------------------------------|
D|--------------------------------------------------------| repeat
A|--------------------------------------------------------|
E|--------------------------------------------------------|
Tap to rate this tab
# A B C D E F G H I J K L M N O P Q R S T U V W X Y Z