Phylum - Sabot Sabot tab

Tabbed by: Christian Abellanosa!!

RegArds q sa tanan bisdaka dara!!
15y/o! need ko ug banda!! \m/

:)


STANDARD

Intro:
    C    F        C    F      C    F        C    F
e:-----------------------------------------------------------|
B:-----------------------------------------------------------|
G:-----------------------------------------------------------|
D:--2-2x-3x-3-3---2-2x-3~-3---2-2x-3x-3-3---2-2x-3x----------|
A:--3-3x-3x-3-3---3-3x-3~-3---3-3x-3x-3-3---3-3x-3x---7\0x---|
E:-----------------------------------------------------------|
    . .. .. . .   . .. .  .   . .. .. . .   . .. ..   .

Verse1:
      C    F    Am   G                   F   G
e:-------------------------------    ----1---3---|
B:-------------------------------    ----1---3---|
G:----5555-----------------------    ----2---4---|
D:----5555-3333-7777-5-555-------    ----3---5---|
A:----3333-3333-7777-5-555-------    ----3---5---|
E:---------1111-5555-3-333-------(3x)----1---3---|
      .... .... .... . ...               .   .

Riff 1:
    C    F        C    F      C    F        C    F
e:-----------------------------------------------------------|
B:-----------------------------------------------------------|
G:-----------------------------------------------------------|
D:--2-2x-3x-3-3---2-2x-3~-3---2-2x-3x-3-3---2-2x-3x-3--------|
A:--3-3x-3x-3-3---3-3x-3~-3---3-3x-3x-3-3---3-3x-3x-3-7\0x---|
E:-----------------------------------------------------------|
    . .. .. . .   . .. .  .   . .. .. . .   . .. .. . .  .

Verse2:
      C    F    Am   G
e:-------------------------------|
B:-------------------------------|
G:----5555-----------------------|
D:----5555-3333-7777-5-555-------|
A:----3333-3333-7777-5-555-------|
E:---------1111-5555-3-333-------|(2x)
      .... .... .... . ...

      C    F    G    Am        F          G          Am            Am Am
e:-----------------------------1----------3----------5--------------------|
B:-----------------------------1----------3----------5--------------------|
G:----5555---------------------2----------4----------5--------------------|
D:----5555-3333-5555-7777------33333333---55555555---777777777777--7x-7x--|
A:----3333-3333-5555-7777------33333333---55555555---777777777777--7x-7x--|
E:---------1111-3333-5555------11111111---33333333---555555555555--5x-5x--|
      .... .... .... ....      ........   ........   ............  .  .

Chorus:
   F        G        C                  Am       G        F        G
e:---------------------------------------------------------------------|
B:---------------------------------------------------------------------|
G:-------------------5555555555555555----------------------------------|
D:-33333333-55555555-5555555555555555--77777777-55555555-33333333-5~~--|
A:-33333333-55555555-3333333333333333--77777777-55555555-33333333-5~~--|
E:-11111111-33333333---------(distort)-55555555-33333333-11111111-3~~--|
   ........ ........ ................  ........ ........ ........ .

Riff 1:
    C    F        C    F      C    F        C    F
e:-----------------------------------------------------------|
B:-----------------------------------------------------------|
G:-----------------------------------------------------------|
D:--2-2x-3x-3-3---2-2x-3~-3---2-2x-3x-3-3---2-2x-3x-3--------|
A:--3-3x-3x-3-3---3-3x-3~-3---3-3x-3x-3-3---3-3x-3x-3-7\0x---|
E:-----------------------------------------------------------|
    . .. .. . .   . .. .  .   . .. .. . .   . .. .. . .  .

Verse3:
      C    F    Am   G
e:-------------------------------|
B:-------------------------------|
G:----5555-----------------------|
D:----5555-3333-7777-5-555-------|
A:----3333-3333-7777-5-555-------|
E:---------1111-5555-3-333-------|(2x)
      .... .... .... . ...

      C    F    G    Am        F          G          Am            Am Am
e:-----------------------------1----------3----------5--------------------|
B:-----------------------------1----------3----------5--------------------|
G:----5555---------------------2----------4----------5--------------------|
D:----5555-3333-5555-7777------33333333---55555555---777777777777--7x-7x--|
A:----3333-3333-5555-7777------33333333---55555555---777777777777--7x-7x--|
E:---------1111-3333-5555------11111111---33333333---555555555555--5x-5x--|
      .... .... .... ....      ........   ........   ............  .  .

Chorus:
   F        G        C                 Am       G        F        G
e:-------------------------------------------------------------------------|
B:-------------------------------------------------------------------------|
G:-------------------5555555555555555--------------------------------------|
D:-33333333-55555555-5555555555555555--77777777-55555555-33333333-555x555--|
A:-33333333-55555555-3333333333333333--77777777-55555555-33333333-555x555--|
E:-11111111-33333333---------(distort)-55555555-33333333-11111111-333x333--|
   ........ ........ ................  ........ ........ ........ .......
Bridge:
   F  G    Am G      F  G    Am     F  G    Am G
e:---------------------------------------------------|
B:---------------------------------------------------|
G:---------------------------------------------------|
D:-3335-55-7775-55---3335-55-7-7-7--3335-55-7775-55--|
A:-3335-55-7775-55---3335-55-7-7-7--3335-55-7775-55--|
E:-1113-33-5553-33---1113-33-5-5-5--1113-33-5553-33--|
   .... .. .... ..   .... .. . . .  .... .. .... ..

    F          G          Am
e:--1----------3----------5--------------------|
B:--1----------3----------5--------------------|
G:--2----------4----------5--------------------|
D:--33333333---55555555---777777777777--7x-7x--|
A:--33333333---55555555---777777777777--7x-7x--|
E:--11111111---33333333---555555555555--5x-5x--|
    ........   ........   ............  .. ..

Chorus:
   F        G        C                 Am       G        F        G
e:-------------------------------------------------------------------------|
B:-------------------------------------------------------------------------|
G:-------------------5555555555555555--------------------------------------|
D:-33333333-55555555-5555555555555555--77777777-55555555-33333333-555x555--|
A:-33333333-55555555-3333333333333333--77777777-55555555-33333333-555x555--|
E:-11111111-33333333---------(distort)-55555555-33333333-11111111-333x333--|
   ........ ........ ................  ........ ........ ........ .......

Chorus:
   F        G        C                 Am       G        F        G
e:-------------------------------------------------------------------------|
B:-------------------------------------------------------------------------|
G:-------------------5555555555555555--------------------------------------|
D:-33333333-55555555-5555555555555555--77777777-55555555-33333333-555x555--|
A:-33333333-55555555-3333333333333333--77777777-55555555-33333333-555x555--|
E:-11111111-33333333-------------------55555555-33333333-11111111-333x333--|
   ........ ........ ................  ........ ........ ........ .......

Outro:
    F  Am   G  F    F  Am    Am G  F
e:----------------------------------------|
B:----------------------------------------|
G:----------------------------------------|
D:--3337-77-5553-33-3337-77--7--5--3~~----|
A:--3337-77-5553-33-3337-77--7--5--3~~----|
E:--1115-55-3331-11-1115-55--5--3--1~~----|
    .... .. .... .. .... ..  .  .  .

Not 100% accurate but sounds correct..
Just listen to the original song for timing..

Trun frequency/tone of distortion to low..or between lowest to mid..

FACEBOOK: assassin_colony@yahoo.com
Tap to rate this tab
 
# A B C D E F G H I J K L M N O P Q R S T U V W X Y Z