Song name
# A B C D E F G H I J K L M N O P Q R S T U V W X Y Z

Phylum - E2y-e2y tab

Help us improve GuitareTab! Take a short survey!
     BASS S E2Y-E2Y

     INTRO
     VERSE1 CHORDS,D,F#m,G,Bm,A   KAILAN SABAY SA FLACKING
     e-----------------------------------------------------------------|
     a-5----------------12-----11--------------------------------------|
     d-----7------- 10---------------9/7---7----5----------------------|
     g-------7---9-----------9-----------------------------------------|


     e--------------------------------------------/5-------------------|
     a-5-----------------12-----11-----------9-------------------------|
     d-----7----7---10----------------11/10----------------------------|
     g-------7----9----------9-----------------------------------------|


     chorus
     e-------------222----2----333----3/7---77----55-----------------|
     a--555---5------------------------------------------------------|
     d---------------------------------------------------------------|
     g---------------------------------------------------------------|
      balik2x rah ika bridge kay g ug a rah ng chords s bass

      thx..........rate moh ha.....the sorcerer ang ni sipra ani
Related for E2y-e2y tab