Song name
# A B C D E F G H I J K L M N O P Q R S T U V W X Y Z

Pia - Gloomy Sunday tab

This is an awsome song by the band Pia(This is a cover actually, they haven't actually 
it). This is the whole song. It's pretty much accurate, and what i've seen so far, i'm 
first one who have tabbed this out ever.


If you want to comment, leave corrections, or just want to talk you can contact me with 
e-mail adress: Haypro_90@yahoo.com, or msn: NaDa_19_94@hotmail.com


Name of tabber:Eric"Dark_Knight94"Jansson Jung Woo Park
Website of band:http://www.bandpia.net/


e---------------|
B-3/5/3/5/3-----|
G-2/4/2/4/2<----- repeat twice, bass line goes after this
D---------------|
A---------------|
E---------------|

Intro:

Repeat these chords twice. not very accurate strumming pattern, but it's just how many 
you strum these chords.

e----------------------------------------------------------------|
B----------------------------------------------------------------|
G-5-5-5----------------------------------------------------------|
D-5-5-5--5--5-5-5---7-7-7-7-7-5-3-7-7-7--5-5-5-5-3-3-3-3-5-5-5-5-|
A-3-3-3--5--5-5-5---7-7-7-7-7-5-3-7-7-5--5-5-5-5-3-3-3-3-5-5-5-5-|
E--------3--3-3-3---5-5-5-5-5-3-1-5-5-5--3-3-3-3-1-1-1-1-3-3-3-3-|


Verse:

e-------------------|
B-2-4-5-2-4-2-2-4-5-|
G-------------------|
D-------------------|
A-------------------|
E-------------------|

Repeat intro and verse

then repeat intro again, when the singer screams, the following chord is:


e----------------------------|
B----------------------------|
G----------------------------|
D-3-3-3-3-3-<---repeat this--| x3
A-3-3-3-3-3------------------|
E-1-1-1-1-1------------------|
p.m p.m p.m

after that, it comes the same chords:

e---------------|
B---------------|
G---------------|
D-3-3-3-3-3-3-3-|
A-3-3-3-3-3-3-3-|
E-1-1-1-1-1-1-1-|


second guitar:


E---------------------------|
B---------------------------|
G---5-----------------------|
D--5--5----5---(5)<---------|let this chord ring
A-3-------5--5--------------|(5)
E--------3------------------|(3)

First guitar after letting the note ring:

E---------------|
B---------------|
G---------------|
D-5-5-5-5-5-5-5-|
A-5-5-5-5-5-5-5-|
E-3-3-3-3-3-3-3-|

Repeat intro as many times you need.
Tap to rate this tab
# A B C D E F G H I J K L M N O P Q R S T U V W X Y Z