Song name
# A B C D E F G H I J K L M N O P Q R S T U V W X Y Z

Pianos Become The Teeth - Filial tab

-------------------------------------------------------------------------------
			     Filial - Pianos Become the Teeth
-------------------------------------------------------------------------------
Tabbed by:afterthewar
Email:e10005515g@gmail.com

Tuning:Standard

Band Website:http://www.myspace.com/pianosbecometheteeth

Yes I know. Its an insanely short tab. Its a short intro, ok? I'll tab the
whole song on to conditions: 1)I have the time and 2)Someone cares if I tab the whole 
or not.

Guitar 1
e|---------------------------------------------------------------------------|
B|----------------------------------------------3---2------------------------|
G|--------2---------------------2--------------------------------------------|
D|-----------4------------------------4--------------------------------------|
A|--------------5-------------------------5----------------------------------|
E|---3-------------------0---------------------------------------------------|
Tap to rate this tab
 
# A B C D E F G H I J K L M N O P Q R S T U V W X Y Z