Song name
# A B C D E F G H I J K L M N O P Q R S T U V W X Y Z

Pianos Become The Teeth - Hiding tab

-------------------------------------------------------------------------------
                             Hiding - Pianos Become The Teeth
-------------------------------------------------------------------------------
Tabbed by:Jalxleo
E-mail:

Tuning:Standard EADGBe
Capo on 2nd fret, tab is based off of the capo 



e|----0----------------------------------------------------------------------|
B|------2---2----2---0h2---2h3p2(2b3br2)-------------------------------------|
G|-----------------------------------------4\2-------------------------------|
D|-----------------------------------------------2-0-----0-------------------|
A|--0-----0---00---0-----0---------------0-------------4---------------------|
E|2--------------------------------------------0-----0-----------------------|

This is just the intro i'm still trying to figure out the rest of the song
My first upload so enjoy;)
************************************

| /   slide up
| \   slide down
| h   hammer-on
| p   pull-off
| ~   vibrato
| +   harmonic
| x   Mute note
| b   Bend
| pb  Pre-bend
| br  Bend release
| pbr Pre-bend release
| brb Bend release bend

************************************
Tap to rate this tab
# A B C D E F G H I J K L M N O P Q R S T U V W X Y Z