Song name
# A B C D E F G H I J K L M N O P Q R S T U V W X Y Z

Pianos Become The Teeth - Hiding tab

Pianos Become Teeth - HIDING
off their split with touche amore

standard tuning
capo 2nd fret (all notes relative to capo)

Key:
/ : slide up
\ : slide down
b: bend
r: release

Intro/Verse: (repeated several times)
e|--------------------------------------------------|
b|------5-------------------------------------------|
g|--------6---6/7\6--6---4/6----6b7r6---------------|
d|------------------------------------7\-----0------|
a|----0-----0-------0--0-----0--------------7-7/4-0-|
e|--2--------------------------------------0--------|

Post Verse:
e|-----------------------------|
b|-----------------------------|
g|-----------------------------|
d|--4--4-4/7--7-7\6-6-6b--4----|
a|--0--0-0/0--0-0\0-0-0---0----|
e|--2--2-2/5--5-5\4-4-4---2----|

i think there's another riff here later in the song maybe i'll post it later...
Tap to rate this tab
# A B C D E F G H I J K L M N O P Q R S T U V W X Y Z