Song name
# A B C D E F G H I J K L M N O P Q R S T U V W X Y Z

Pickled Dick - Battleaxe tab

Band: Pickled Dick
Song: Battleaxe
Album: PANDA-MOANIUM
Tuning: E-Standard

http://www.pickleddick.com

The rhythm isnt always accurate, you'll have to figure it out yourself :D
Im gunna work my way through tabbing the rest of this album, so stay tuned!

Intro:
|----------------------------------------------|
|----------------------------------------------|
|--1111-999------------------------------------| x2
|--1111-999--7-77--999-111111111111111111------|
|--9-9--777--7-77--999-111111111111111111------|
|------------5-55--777-9-9-9-9-9-9-9-9-9-------|

|-----------------------------------------------------|
|-----------------------------------------------------|
|-1111-999--77777--99-44-6666--22-44-6666-------------|
|-1111-999--77777--99-44-6666--22-44-6666-44-22-4444--|
|-9-9--777--55555--77-22-4444--00-22-4444-44-22-4444--|
|-----------------------------------------22-00-2222--|

Verse: "8 o'clock and alls fucked up Good Morning Everyone.."
|----------------------------------------------|
|----------------------------------------------|
|------1111-------1111-------------------------| x2
|-1111-1111-99----1111-111111111111------------|
|-1111-9-9--99----9-9--111111111111------------|
|-9-9-------77-xx------9-9-9-9-9-9-------------|

"Stand back dont roll your eyes at me!"
|------------------------------------------------|
|------------------------------------------------|
|-999999---------111199-111199-111199-1111111111-|
|-999999-999999--111199-111199-111199-1111111111-|
|-777777-999999--9-9-77-9-9-77-9-9-77-9-9-9-9-9--|
|--------777777----------------------------------|

"You're irrelevant cant you seeeeeeeeee"
|----------------------------------------------|
|----------------------------------------------|
|-999999---------------------------------------|
|-999999-999999-111111111111111111-------------|
|-777777-999999-111111111111111111-------------|
|--------777777-9-9-9-9-9-9-9-9-9--------------|

Chorus: "Instead of looking round at whats theres not.."
        "Take a look around at what you've got"
|----------------------------------------------|
|----------------------------------------------|
|-1111111111111111-----------------------------|
|-1111111111111111-9999-11111111---------------|
|-9-9-9-9-9-9-9-9--9999-11111111---------------|
|------------------7777-9-9-9-9----------------|

"You're miserable dont take it out on me!"
|---------------------------------------------------------------------------------|
|---------------------------------------------------------------------------------|
|-----------------------1111111111-88888------------------------------------------|
|-13-13-13--1111111111--1111111111-88888-9999999-1111111111--13-13-13-13-13-------|
|-13-13-13--1111111111--9-9-9-9-9--66666-9999999-1111111111--13-13-13-13-13-------|
|-11-11-11--9-9-9-9-9--------------------7777777-9-9-9-9-9---11-11-11-11-11-------|

|--------------------------------------------------|
|--------------------------------------------------|
|----------------------------------111111111111----|
|-1111111111-9999999-111111111111--111111111111----|
|-1111111111-9999999-111111111111--9-9-9-9-9-9-----|
|-9-9-9-9-9--7777777-9-9-9-9-9-9-------------------|

Verse as before
Chorus as before
Intro as before

Bridge: "I hope you change cos your unwell, you're a Christian but i cant tell.."
|-------------------------------------------------------------------------------------|
|-------------------------------------------------------------------------------------|
|-------------------------------------------------------------------------------------|
|-7777777777-999999999999-7777777777777-999999999999-777777777777--999999999999-------|
|-7777777777-999999999999-7777777777777-999999999999-777777777777--999999999999-------|
|-5555555555-777777777777-5555555555555-777777777777-555555555555--777777777777-------|

"I know you're going straight to hell."
|------------------------------|
|------------------------------|
|------------------------------| x2
|-44-222-44-222-44-222-44------|
|-44-222-44-222-44-222-44------|
|-22-000-22-000-22-000-22------|

"                        YOU'RE                         A                         BITCH!
|-----------------------------------------------------------------------------------------|
|-----------------------------------------------------------------------------------------|
|-----------------------------------------------------------------------------------------|
|-44-222-44-222-44-222-4-------44-222-44-222-44-222-4-------44-222-44-222-44-222-4----7-9-|
|-44-222-44-222-44-222-4-------44-222-44-222-44-222-4-------44-222-44-222-44-222-4----7-9-|
|-22-000-22-000-22-000-2-------22-000-22-000-22-000-2-------22-000-22-000-22-000-2----5-7-|

Chorus as before but slightly varied.. You'll figure it out =]
Tap to rate this tab
 
# A B C D E F G H I J K L M N O P Q R S T U V W X Y Z