Song name
# A B C D E F G H I J K L M N O P Q R S T U V W X Y Z

Pickled Dick - Ship Ahoy tab

Help us improve GuitareTab! Take a short survey!
Band: Pickled Dick
Song: Ship Ahoy!
Album: PANDA-MOANIUM
Tuning: Standard


Intro: "We've been at sea for 16months and we've got all the gold in the whole wide world.
|--------------------------------------------------------------|
|--------------------------------------------------------------|
|--8---------888----8--------888--------888--------------------|
|--8--666-xx-888-xx-8-666-xx-888-666-xx-888-66666-88888888-----|
|--6--666-xx-666-xx-6-666-xx-666-666-xx-666-66666-88888888-----|
|-----444-xx-----xx---444-xx-----444-xx-----44444-66666666-----|

Chorus: "Ship ship ahoy, said me and the boys"
|--------------------------------------------------------------------------------------|
|--------------------------------------------------------------------------------------|
|-888---------------888888---------------------888---------------555-------------------|
|-888-x-666-x-888-x-888888-x-666-x-888888888-x-888-x-666-x-555-x-555-x-666666-88888----|
|-666-x-666-x-888-x-666666-x-666-x-888888888-x-666-x-666-x-555-x-333-x-666666-88888----|
|-----x-444-x-666-x--------x-444-x-666666666-x-----x-444-x-333-x-----x-444444-66666----|

Intro as before.
Chorus as before.

Banjo Solo:
|-------------------------------------------------------------------------------------|
|--------------------------888888-6666-111111-999-88888888888888-11111111-9999-88888--|
|--888888888-7----10-8888-------------------------------------------------------------|
|--------------88---------------------------------------------------------------------|
|-------------------------------------------------------------------------------------|
|-------------------------------------------------------------------------------------|

|-----------------------------------|
|---7---7---7---7---6---6---5---5---|
|-7---7---7---7---7---7---7---7-----|
|-----------------------------------|
|-----------------------------------|
|-----------------------------------|

Verse:
|-----------------------------------------------------------------------------|
|-----------------------------------------------------------------------------|
|--10--------101010----10--------101010--------101010-------------------------|
|--10-888-xx-101010-xx-10-888-xx-101010-888-xx-101010-88888-1010101010101010--|
|--8--888-xx-8-8-8--xx-8--888-xx-8-8-8--888-xx-8-8-8--88888-1010101010101010--|
|-----666-xx--------xx----666-xx--------666-xx--------66666-8-8-8-8-8-8-8-8---|

Chorus:
|-------------------------------------------------------------------------------------------------------------------|
|-------------------------------------------------------------------------------------------------------------------|
|-101010------------------101010101010------------------------------101010---------------777---------------------10-|
|-101010-x-888-x-101010-x-101010101010-x-888-x-101010101010101010-x-101010-x-888-x-777-x-777-x-888888-1010101010-10-|
|-8-8-8--x-888-x-101010-x-8-8-8-8-8-8--x-888-x-101010101010101010-x-8-8-8--x-888-x-777-x-555-x-888888-1010101010-8--|
|--------x-666-x-8-8-8--x--------------x-666-x-8-8-8-8-8-8-8-8-8--x--------x-666-x-555-x-----x-666666-8-8-8-8-8-----|
Related for Ship Ahoy tab