Song name
# A B C D E F G H I J K L M N O P Q R S T U V W X Y Z

Pickwick - Hacienda Motel tab

-------------------------------------------------------------------------------
                             Hacienda Motel - Pickwick
-------------------------------------------------------------------------------
Tabbed by:Dmoney
E-mail:don't email me

Tuning:

e|-----7----------------4---4-4--------4/5--5/6----------------------------------------|
B|-----9----------------5---5-5--------5/6--6/7----------------------------------------|
G|-----9----------------6---6-6--------6/7--7/8----------------------------------------|
D|-----9----------------6---6-6--------6/7--7/8----------------------------------------|
A|-----7----------------4---4-4--------4/5--5/6----------------------------------------|
E|-------------------------------------------------------------------------------------|
Tap to rate this tab
# A B C D E F G H I J K L M N O P Q R S T U V W X Y Z