Song name
# A B C D E F G H I J K L M N O P Q R S T U V W X Y Z

Picture Me Broken - Dearest Im So Sorry tab

Since I can't find a tab of this song, here you go guys. 
I made my own.
I just wanna' share how I play this thing.

Tabbed by: mattcore (BK-201)

Tuning: Drop D

Song Title: Dearest, I'm So Sorry
Artist: Picture Me Broken
Album: Dearest, I'm So Sorry EP

http://www.purevolume.com/picturemebroken

====================================================================




INTRO:


|------------------------------------------------------------------|
|------------------------------------------------------------------|
|------------------------------------------------------------------|
|------------------------------------------------------------------|
|-----8p0---7p0----------------------------------------------------|
|--00-----0-----0-10p0-8p0-5p0-7~--00-8p0-0-7p0-0-5p0-3p0-2p0-3p0--|  \
   ..     .     .                  ..     .     .                      \
                                                                        2x
                                                                       /
|------------------------------------------------------------------|  /
|------------------------------------------------------------------|
|------------------------------------------------------------------|
|---------------------------------------------------------8p0-7p0--|
|-----8p0---7p0-----------------------8p0---7p0---7p0-8p0----------|
|--00-----0-----0-10p0-8p0-5p0-7~--00-----0-----0------------------|
   ..     .     .                  ..     .     .



VERSE:


|---------------------------------------------------|
|---------------------------------------------------|
|---------------------------------------------------|
|--0-0------------0-0------------5-5-----------8-8--|
|--0-0------------0-0------------5-5-----------8-8--|
|--0-0------------0-0------------5-5-----------8-8--|


|-------------------------------------------------------------|
|-------------------------------------------------------------|
|---------5--------------5--------------5---------------------|
|--0-0--------7---0-0--------7---5-5-------7---8-8----7-------|
|--0-0-5-5--5---5-0-0-5-5--5---5-5-5-----------8-8--------8^--|
|--0-0------------0-0------------5-5-5-5--5--5-8-8-8-8--8-----|
       . .  .   .     . .  .   .     . .  .  .     . .  .



Pre-CHORUS:


|------------------------------------------------------------------|
|------------------------------------------------------------------|
|------------------------------------------------------------------|
|------------------------------------------------------------------|
|-----8p0---7p0----------------------------------------------------|
|--00-----0-----0-10p0-8p0-5p0-7~--00-8p0-0-7p0-0-5p0-3p0-2p0-3p0--|
   ..     .     .                  ..     .     .


|-----------------------------------------------------|
|-----------------------------------------------------|
|-----------------------------------------------------|
|-----------------------------------------------------|
|-----8p0---7p0-----------------------8p0---7p0---7^--|
|--00-----0-----0-10p0-8p0-5p0-7~--00-----0-----0-----|
   ..     .     .                  ..     .     .



CHORUS:


|----------------------------------------------------------------------|
|----------------------------------------------------------------------|
|----------------------------------------------------------------------|
|--0000000000000000-8888888888888888-7777777777777777-5555555588888888-|
|--0000000000000000-8888888888888888-7777777777777777-5555555588888888-|
|--0000000000000000-8888888888888888-7777777777777777-5555555588888888-|

|----------------------------------------------------------------------|
|----------------------------------------------------------------------|
|----------------------------------------------------------------------|
|--0000000000000000-8888888888888888-7777777777777777-5-5-5-5-8-8-8-8--|
|--0000000000000000-8888888888888888-7777777777777777-5-5-5-5-8-8-8-8--|
|--0000000000000000-8888888888888888-7777777777777777-5-5-5-5-8-8-8-8--|
                                                      . . . . . . 


Pre-VERSE:


|------------------------------------------------------------------|
|------------------------------------------------------------------|
|------------------------------------------------------------------|
|------------------------------------------------------------------|
|-----8p0---7p0----------------------------------------------------|
|--00-----0-----0-10p0-8p0-5p0-7~--00-8p0-0-7p0-0-5p0-3p0-2p0-3p0--|  
   ..     .     .                  ..     .     .                      
                                                                        
                                                                       
|------------------------------------------------------------------|  
|------------------------------------------------------------------|
|------------------------------------------------------------------|
|---------------------------------------------------------8p0-7p0--|
|-----8p0---7p0-----------------------8p0---7p0---7p0-8p0----------|
|--00-----0-----0-10p0-8p0-5p0-7~--00-----0-----0------------------|
   ..     .     .                  ..     .     .



VERSE:


|---------------------------------------------------|
|---------------------------------------------------|
|---------------------------------------------------|
|--0-0------------0-0------------5-5-----------8-8--|
|--0-0------------0-0------------5-5-----------8-8--|
|--0-0------------0-0------------5-5-----------8-8--|


|-------------------------------------------------------------|
|-------------------------------------------------------------|
|---------5--------------5--------------5---------------------|
|--0-0--------7---0-0--------7---5-5-------7---8-8----7-------|
|--0-0-5-5--5---5-0-0-5-5--5---5-5-5-----------8-8--------8^--|
|--0-0------------0-0------------5-5-5-5--5--5-8-8-8-8--8-----|
       . .  .   .     . .  .   .     . .  .  .     . .  .



Pre-CHORUS:


|------------------------------------------------------------------|
|------------------------------------------------------------------|
|------------------------------------------------------------------|
|------------------------------------------------------------------|
|-----8p0---7p0----------------------------------------------------|
|--00-----0-----0-10p0-8p0-5p0-7~--00-8p0-0-7p0-0-5p0-3p0-2p0-3p0--|
   ..     .     .                  ..     .     .


|-----------------------------------------------------|
|-----------------------------------------------------|
|-----------------------------------------------------|
|-----------------------------------------------------|
|-----8p0---7p0-----------------------8p0---7p0---7^--|
|--00-----0-----0-10p0-8p0-5p0-7~--00-----0-----0-----|
   ..     .     .                  ..     .     .



CHORUS:


|----------------------------------------------------------------------|
|----------------------------------------------------------------------|
|----------------------------------------------------------------------|
|--0000000000000000-8888888888888888-7777777777777777-5555555588888888-|
|--0000000000000000-8888888888888888-7777777777777777-5555555588888888-|
|--0000000000000000-8888888888888888-7777777777777777-5555555588888888-|

|----------------------------------------------------------------------|
|----------------------------------------------------------------------|
|----------------------------------------------------------------------|
|--0000000000000000-8888888888888888-7777777777777777-5-5-5-5-8-8-8-8--|
|--0000000000000000-8888888888888888-7777777777777777-5-5-5-5-8-8-8-8--|
|--0000000000000000-8888888888888888-7777777777777777-5-5-5-5-8-8-8-8--|
                                                      . . . . . . 

|--------|
|--------|
|--------|
|--0~~~--|
|--0~~~--|
|--0~~~--|



BREAKDOWN!:


|-------------------------------------------------------|
|-------------------------------------------------------|
|-------------------------------------------------------| (Note: Rhythm only)
|-------------------------------------------------------|
|--000--000--000--000--0-0-0--000--000--000-------------|
|--000--000--000--000--0-0-0--000--000--000--------3^~--|
   ...  ...  ...  ...  . . .  ...  ...  ...




|--------------------------------------------------------|
|--------------------------------------------------------|
|--------------------------------------------------------|
|--------------------------------------------------------|
|--000--000--000--000--0-0-0--000--000--000--000--0-0-0--|
|--000--000--000--000--0-0-0--000--000--000--000--0-0-0--|
   ...  ...  ...  ...  . . .  ...  ...  ...  ...  . . .
 
|--------------------------------------------------------------|
|--------------------------------------------------------------|
|--------------------------------------------------------------|
|----------------------------------------------------10-10-10--|
|--888--888--777--777--10-8-7--888--888--777--777-10-10-10-10--|
|--888--888--777--777--10-8-7--888--888--777--777-10-10-10-10--|
   ...  ...  ...  ...  .  . .  ...  ...  ...  ...  .


|--------------------------------------------------------|
|--------------------------------------------------------|
|--------------------------------------------------------|
|--------------------------------------------------------|
|--000--000--000--000--0-0-0--000--000--000--000--0-0-0--|      \
|--000--000--000--000--0-0-0--000--000--000--000--0-0-0--|       \ 
   ...  ...  ...  ...  . . .  ...  ...  ...  ...  . . .           \
                                                                   PM:Let Ring
|--------------------------------------------------------------|  /
|--------------------------------------------------------------|
|--------------------------------------------------------------|
|--------------------------------------------------------------|
|--888--888--777--777--10-8-7--888--888--777--777-10-10-10-10--|
|--888--888--777--777--10-8-7--888--888--777--777-10-10-10-10--|
   ...  ...  ...  ...  .  . .  ...  ...  ...  ...  .  .  .  .


|--------------------------------------------------------|
|--------------------------------------------------------|
|--------------------------------------------------------|
|--------------------------------------------------------|
|--000--000--000--000--0-0-0--000--000--000--000--0-0-0--|
|--000--000--000--000--0-0-0--000--000--000--000--0-0-0--|
   ...  ...  ...  ...  . . .  ...  ...  ...  ...  . . .
 
|--------------------------------------------------------------|
|--------------------------------------------------------------|
|--------------------------------------------------------------|
|-----------------------------------------7--------------------|
|--888--888--777--777--10-8-7--888--888-7-7-7-7-7-10-10-7-8-7--|
|--888--888--777--777--10-8-7--888--888-7-7-7-7-7-10-10-7-8-7--|
   ...  ...  ...  ...  .  . .  ...  ... .   . . .  .  . . . .


BRIDGE:


[Rhythm]

|---------------------------------------|
|---------------------------------------| (3x)
|---------------------------------------|
|--88888888-00000000-88888888-77777777--|
|--88888888-00000000-88888888-77777777--|
|--88888888-00000000-88888888-77777777--|


|-------------------------------------------|
|-------------------------------------------|
|-------------------------------------------|
|--88888888-00000000-88888888-7-------------|
|--88888888-00000000-88888888-7-7-7-7-0-----|
|--88888888-00000000-88888888-7-7-7-7-0-5^--|
                                . . . .


[Lead] not pretty sure but worth it


|--6-----6-----4-----4-----7---6----|
|----6-----6-----6-----6-----6---6--|
|------5-----5-----5-----5----------|
|-----------------------------------|
|-----------------------------------|
|-----------------------------------|



CHORUS:


|-------------------------------------------------------------------------------------------|
|-------------------------------------------------------------------------------------------|
|-------------------------------------------------------------------------------------------|
|--00000000000000000000-88888888888888888888-77777777777777777777-555555555555888888888888--|
|--00000000000000000000-88888888888888888888-77777777777777777777-555555555555888888888888--|
|--00000000000000000000-88888888888888888888-77777777777777777777-555555555555888888888888--|
-
|---------------------------------------------------------------------------------------------|
|---------------------------------------------------------------------------------------------|
|---------------------------------------------------------------------------------------------|
|--00000000000000000000-88888888888888888888-77777777777777777777-------------------------0x--|
|--00000000000000000000-88888888888888888888-77777777777777777777--5--5--5--5--8--8--8--8-0x--|
|--00000000000000000000-88888888888888888888-77777777777777777777--5--5--5--5--8--8--8--8-0x--|
                                                                   .  .  .  .  .  .  .  .


OUTRO:


|---------------------------------------------------------------------|
|---------------------------------------------------------------------|
|---------------------------------------------------------------------|
|----------------------------------------------------------------0~x--|
|-----8p0---7p0--------------------------------------------------0~x--|
|--00-----0-----0-10p0-8p0-5p0-7~--00-8p0-0-7p0-0-5p0-3p0-2p0-3--0~x--|
   ..     .     .                  ..     .     .               
Tap to rate this tab
# A B C D E F G H I J K L M N O P Q R S T U V W X Y Z