Picture Me Broken - Vital Signs tab



                INTRO
E|-------------------------------------|
B|----5\6-5----5\6-5-----8-6----5\6----|
G|---7-----7---7----7---7---7--7-------|
D|--8--------8---------7------7--------|
A|-------------------------------------|
D|-------------------------------------|

E|-------------------------------------|
B|----5\6-5----5\6-5-----8\10----8\10--|
G|---7-----7---7----7---7----7--7------|
D|--8--------8---------7-------7-------|
A|-------------------------------------|
D|-------------------------------------|

E|------------------------------------------------------------------------------|
B|------------------------------------------------------------------------------|
G|10101010-7777---10101010-7-7--7--7-7---10101010-7777---10101010---------------|
D|-888888--7777----888888--7-7--7--7-7---888888---7777----888888--12-12-12-12---|
A|-888888--5555----888888--5-5--5--5-5---888888---5555----888888--10-10-10-10---|
D|-888888----------888888----------------888888----------888888-----------------|


                  VERSE I

E|-------------------------------------|
B|----5\6-5----5\6-5-----8-6----5\6----|
G|---7-----7---7----7---7---7--7-------|
D|--8--------8---------7------7--------|
A|-------------------------------------|
D|-------------------------------------|

E|-------------------------------------|
B|----5\6-5----5\6-5-----8\10----8\10--|
G|---7-----7---7----7---7----7--7------|
D|--8--------8---------7-------7-------|
A|-------------------------------------|
D|-------------------------------------|

E|------------------------------------------------------------|
B|----5\6-5----5\6-5-----8-6----5\6-----5\6-5----5\6-5--------|
G|---7-----7---7----7---7---7--7-------7-----7---7------------|
D|--8--------8---------7------7-------8--------8--------------|
A|------------------------------------------------------------|
D|------------------------------------------------------------|

                         PRE-CHORUS

E|------------------------------------------------------------------|
B|------------------------------------------------------------------|
G|------------------------------------------------------------------|
D|-0-0-0-0--3-3-3-3--0-0-0-0--3-3-3-3--0-0-0-0--3-3-3-3-0-0-0-0-0---|
A|-0-0-0-0--3-3-3-3--0-0-0-0--3-3-3-3--0-0-0-0--3-3-3-3-0-0-0-0-0---|
D|-0-0-0-0--3-3-3-3--0-0-0-0--3-3-3-3--0-0-0-0--3-3-3-3-0-0-0-0-0---|

                              CHORUS

E|-----------------------------------------------------------------|
B|-----------------------------------------------------------------|
G|-10-10-10---10-10-10--7-7-7--12-12-12--10-10-10-10--12-12-12-12--|
D|-10-10-10--- 8- 8 -8--7-7-7--10-10-10-- 8- 8- 8- 8--10-10-10-10--|
A|- 8- 8- 8--- 8- 8 -8--5-5-5--10-10-10-- 8- 8- 8- 8--10-10-10-10--|
D|------------ 8- 8 -8---------10-10-10-- 8- 8- 8- 8--10-10-10-10--|
                                                                    (2x)

E|-----------------------------------------------------------|
B|-----------------------------------------------------------|
G|1010--10--101010--77-7-77---1010--10--101010-77-7-77-------|
D|-88---8---8 8 8---77-7-77---- 88---8---8 8 8-77-7-77-------|
A|-88---8---8 8 8---55-5-55---- 88---8---8 8 8-55-5-55-------|
D|-88---8---8 8 8-------------- 88---8---8 8 8---------------|

                            VERSE II

E|-------------------------------------|
B|----5\6-5----5\6-5-----8-6----5\6----|
G|---7-----7---7----7---7---7--7-------|
D|--8--------8---------7------7--------|
A|-------------------------------------|
D|-------------------------------------|

E|-------------------------------------|
B|----5\6-5----5\6-5-----8\10----8\10--|
G|---7-----7---7----7---7----7--7------|
D|--8--------8---------7-------7-------|
A|-------------------------------------|
D|-------------------------------------|

                              PRE-CHORUS

E|------------------------------------------------------------------|
B|------------------------------------------------------------------|
G|------------------------------------------------------------------|
D|-0-0-0-0--3-3-3-3--0-0-0-0--3-3-3-3--0-0-0-0--3-3-3-3-0-0-0-0-0---|
A|-0-0-0-0--3-3-3-3--0-0-0-0--3-3-3-3--0-0-0-0--3-3-3-3-0-0-0-0-0---|
D|-0-0-0-0--3-3-3-3--0-0-0-0--3-3-3-3--0-0-0-0--3-3-3-3-0-0-0-0-0---|


                              CHORUS

E|-----------------------------------------------------------------|
B|-----------------------------------------------------------------|
G|-10-10-10---10-10-10--7-7-7--12-12-12--10-10-10-10--12-12-12-12--|
D|-10-10-10--- 8- 8 -8--7-7-7--10-10-10-- 8- 8- 8- 8--10-10-10-10--|
A|- 8- 8- 8--- 8- 8 -8--5-5-5--10-10-10-- 8- 8- 8- 8--10-10-10-10--|
D|------------ 8- 8 -8---------10-10-10-- 8- 8- 8- 8--10-10-10-10--|
                                                                    (2x)


E|------------------------------------------------------------------------------------------|
B|------------------------------------------------------------------------------------------|
G|101010--101010---777-777----101010--101010---101010--101010---777-777---------------------|
D|-8 8 8---8 8 8---777-777----8 8 8----8 8 8--- 8 8 8---8 8 8---777-777----8 8 8----8 8 8---|
A|-8 8 8---8 8 8---555-555----8 8 8----8 8 8--- -8 8 8---8 8 8--555-555----8 8 8----8 8 8---|
D|-8 8 8---8 8 8--------------8 8 8----8 8 8-----8 8 8---8 8 8-------------8 8 8----8 8 8---|

E|---------------------|
B|---------------------|
G|-5\10-9-12-9-10-9----|
D|---------------------|
A|---------------------|
D|---------------------| (2x)


E|---------------------------------------------------------|
B|---------------------------------------------------------|
G|-10-10-10---10---7-7-7--12----10-10-10-10--12-12-12-12---|
D|-10-10-10--- 8---7-7-7--10---- 8- 8- 8- 8--10-10-10-10---|
A|- 8- 8- 8--- 8---5-5-5--10---- 8- 8- 8- 8--10-10-10-10---|
D|------------ 8----------10---- 8- 8- 8- 8--10-10-10-10---|

E|-----------------------------------------------------------------|
B|-----------------------------------------------------------------|
G|-10-10-10---10-10-10--7-7-7--12-12-12--10-10-10-10--12-12-12-12--|
D|-10-10-10--- 8- 8 -8--7-7-7--10-10-10-- 8- 8- 8- 8--10-10-10-10--|
A|- 8- 8- 8--- 8- 8 -8--5-5-5--10-10-10-- 8- 8- 8- 8--10-10-10-10--|
D|------------ 8- 8 -8---------10-10-10-- 8- 8- 8- 8--10-10-10-10--|


E|------------------------------------------------------------------|
B|------------------------------------------------------------------|
G|------------------------------------------------------------------|
D|-0-0-0-0--3-3-3-3--0-0-0-0--3-3-3-3--0-0-0-0--3-3-3-3-0-0-0-0-0---|
A|-0-0-0-0--3-3-3-3--0-0-0-0--3-3-3-3--0-0-0-0--3-3-3-3-0-0-0-0-0---|
D|-0-0-0-0--3-3-3-3--0-0-0-0--3-3-3-3--0-0-0-0--3-3-3-3-0-0-0-0-0---|
Tap to rate this tab
 
# A B C D E F G H I J K L M N O P Q R S T U V W X Y Z