Song name
# A B C D E F G H I J K L M N O P Q R S T U V W X Y Z

Pidzama Porno - 28 One Love tab

Intro & Verse

       D     e     fis    A
e:-----2------------------0----|
B:-----3------------------2----|
G:-----2------------------2----|
D:-----0-----2------4-----2----|
A:-----0-----2------4-----0----|
E:-----0-----0------2-----0----|


Chorus

       e    fis     e     D    G    D    e    fis
e:-----0------------------2---------2---------------|
B:-----0------------------3---------3---------------|
G:-----0------------------2---------2---------------|
D:-----2-----4------2-----0----5----0----2-----4----|
A:-----2-----4------2-----0----5----0----2-----4----|
E:-----0-----2------0-----0----3----0----0-----2----|
Tap to rate this tab
# A B C D E F G H I J K L M N O P Q R S T U V W X Y Z