Song name
# A B C D E F G H I J K L M N O P Q R S T U V W X Y Z

Piebald - Its Going To Get Worse Before It Gets Better tab

-------------------------------------------------------------------------------
			     It's Going To Get Worse Before It Gets Better - Piebald
-------------------------------------------------------------------------------
Album: We Are The Only Friends We Have

Tabbed by: SJR

Tuning: Standard

Intro
e|--x------------------------------------------------------------------|
B|--x------------------------------------------------------------------|
G|--4------------------------------------------------------------------|
D|--6------------------------------------------------------------------|
A|--2------------------------------------------------------------------|
E|--0------------------------------------------------------------------|

Verse: (notes in parenthesis are optional)
e|--x---(4)---0-(2)---x------------------------------------------------|
B|--x---(5)---0-(2)---x------------------------------------------------|
G|--4----6----6-(2)---4------------------------------------------------|
D|--6----6----7--4----6------------------------------------------------|
A|--2----4----7--4----2------------------------------------------------|
E|--0----x----5--2----0------------------------------------------------|

Chorus
e|--x---x--(0)-----x---x------x---x--(0)-------------------------------|
B|--x---x--(0)-----x---x------x---x--(0)-------------------------------|
G|--x---x--(6)-----x---4------x---x--(6)-------------------------------|
D|--4--/6/--7------2---4------4--/6/--7--------------------------------|
A|--4--/6/--7------2---2------4--/6/--7--------------------------------|
E|--2--/4/--5------0---x------2--/6/--5--------------------------------|

Interlude
e|-(7)-(7)-(5)-(5)/(7)-------------------------------------------------|
B|--9--(7)-(5)-(5)/(7)-------------------------------------------------|
G|--9---8---6---6-/-8--------------------------------------------------|
D|--9---9---7---7-/-9--------------------------------------------------|
A|--7---9---7---7-/-9--------------------------------------------------|
E|--x---7---5---5-/-7--------------------------------------------------|
OR!!!
e|--7--2--0--0-/-2-----------------------------------------------------|
B|--9--4--2--2-/-4-----------------------------------------------------|
G|--9--4--2--2-/-4-----------------------------------------------------|
D|--9--4--2--2-/-4-----------------------------------------------------|
A|--x--x--x--x-/-x-----------------------------------------------------|
E|--x--x--x--x-/-x-----------------------------------------------------|

Ending
e|--x----(2)--0---x----------------------------------------------------|
B|--x----(2)--0---x----------------------------------------------------|
G|--4----(2)--6---x----------------------------------------------------|
D|--6-----4---7---2----------------------------------------------------|
A|--2-----4---7---2----------------------------------------------------|
E|--0-----2---5---0----------------------------------------------------|

Intro (x1)
Verse (x2)
Chorus (x1)
Intro (x1)
Verse (x2)
Chorus (x1)
Interlude (x8)
Chorus (x1)
Ending (x1)

************************************

| /   slide up
| \   slide down
| h   hammer-on
| p   pull-off
| ~   vibrato
| +   harmonic
| x   Mute note
| b   Bend
| pb  Pre-bend
| br  Bend release
| pbr Pre-bend release
| brb Bend release bend

************************************
Tap to rate this tab
 
# A B C D E F G H I J K L M N O P Q R S T U V W X Y Z