Song name
# A B C D E F G H I J K L M N O P Q R S T U V W X Y Z

Piebald - Watch Her Flow tab

I'm pretty sure i'm wrong but here's my best guess

------------------------------|
------------------------------|
------------------------------|   x4
-9-9-9-9-9-9-9-9-9-9-9-9/10---|
-7-7-7-7-7-7-7-0-0-0-7-0------|
------------------------------|


---------------------------------------------------------------|
---------------------------------------------------------------|
---------------------------------------------------------------|    x4
-9-9-9-9-9--------------------------------------------9/10-----|
-7-7-7-7-7-10-10-10-10-10-8-8-8-8-8-10-10-10-10-10-10-7--------|
-----------8--8--8--8--8--7-7-7-7-7-8--8--8--8--8--8-----------|


------------------------------|
------------------------------|
------------------------------|   x4
-9-12-9-12-11-9-12-9-12-14----|
-7-10-7-10-9--7-10-7-10-12----|
------------------------------|


------------------------------|
------------------------------|
------------------------------|   x8
-9-9-9-9-9-9-9-9-9-9-9-9/10---|
-7-7-7-7-7-7-7-0-0-0-7-0------|
------------------------------|

I really don't know the rest sorry, but feel free to finish it for me.
- farva larva
Tap to rate this tab
# A B C D E F G H I J K L M N O P Q R S T U V W X Y Z