Song name
# A B C D E F G H I J K L M N O P Q R S T U V W X Y Z

Piebald - The Stalker tab


e|-----------------------------------------------------|
B|-----------------------------------------------------|
G|-7-7-7------7-7-7-7------4-4-4-4------4-4-4-4--------|
D|-7-7-7-7-7--7-7-7-7-7-7--4-4-4-4-4-4--4-4-4-4-4-4-5--|   x5
A|-5-5-5-7-7--5-5-5-5-7-7--2-2-2-2-4-4--2-2-2-2-4-4-5--|
E|-------5-5----------5-5----------2-2----------2-2-3--|

e|------------------------------------------------------|
B|------------------------------------------------------|
G|-7-7-7------7-7-7-7------4-4-4-4------4-4-4-4---------|
D|-7-7-7-7-7--7-7-7-7-7-7--4-4-4-4-4-4--4-4-4-4-4-4-4-4-|
A|-5-5-5-7-7--5-5-5-5-7-7--2-2-2-2-4-4--2-2-2-2-4-4-4-4-|
E|-------5-5----------5-5----------2-2----------2-2-2-2-|

e|-------------------------------------------------|
B|-------------------------------------------------|
G|-----------2-4---2-4---2-4---2-4---7-------------|
D|-5~--------0-4---0-4---0-4---0-4---7-4-5~--------|
A|-5~---2~-----2-----2-----2-----2---5-4-5~---2~---|
E|-3~---0~-----------------------------2-3~---0~---|

e|-----------------------------------------------------|
B|-----------------------------------------------------|
G|-7-7-7------7-7-7-7------4-4-4-4------4-4-4-4--------|
D|-7-7-7-7-7--7-7-7-7-7-7--4-4-4-4-4-4--4-4-4-4-4-4-5--|   x3
A|-5-5-5-7-7--5-5-5-5-7-7--2-2-2-2-4-4--2-2-2-2-4-4-5--|
E|-------5-5----------5-5----------2-2----------2-2-3--|

e|------------------------------------------------------|
B|------------------------------------------------------|
G|-7-7-7------7-7-7-7------4-4-4-4------4-4-4-4---------|
D|-7-7-7-7-7--7-7-7-7-7-7--4-4-4-4-4-4--4-4-4-4-4-4-4-4-|
A|-5-5-5-7-7--5-5-5-5-7-7--2-2-2-2-4-4--2-2-2-2-4-4-4-4-|
E|-------5-5----------5-5----------2-2----------2-2-2-2-|

e|-------------------------------------------------|
B|-------------------------------------------------|
G|-----------2-4---2-4---2-4---2-4---7-------------|
D|-5~--------0-4---0-4---0-4---0-4---7-4-5~--------|
A|-5~---2~-----2-----2-----2-----2---5-4-5~---2~---|
E|-3~---0~-----------------------------2-3~---0~---|

e|--------------------------------------------------17-|
B|-12-10-------------10---------10-12-12--10-12-15-----|
G|-------11--11-9-11----11-9-11------------------------|
D|-----------------------------------------------------|
A|-----------------------------------------------------|
E|-----------------------------------------------------|

e|-17-15-14-12-14-15-15---171717-171717-171717-171717-17b-17b-17-|
B|---------------------------------------------------------------|
G|---------------------------------------------------------------|
D|---------------------------------------------------------------|
A|---------------------------------------------------------------|
E|---------------------------------------------------------------|

e|-15-12----12-13b-12-10~~\-|
B|-------15-----------------|
G|--------------------------|
D|--------------------------|
A|--------------------------|
E|--------------------------|

e|-------------------------------------------------------------------------|
B|----12-15----12-15----12-15----12-15----12-15----12-15-12----12----------|
G|-14-------14-------14-------14-------14-------14----------14----14-11-11-|
D|-------------------------------------------------------------------------|
A|-------------------------------------------------------------------------|
E|-------------------------------------------------------------------------|

e|--------------------------------------------|
B|--------------------------12----------------|
G|-12-11-12-14~\---11-12-14------14-11~~~~~\--|
D|--------------------------------------------|
A|--------------------------------------------|
E|--------------------------------------------|

e|----------------------------------------------------------|
B|----------------------------------------------------------|
G|-7-7-7--------------4-4-4--------------7-7-7--------------|
D|-7-7-7-7-7----------4-4-4-4-4----------7-7-7-7-7----------|
A|-5-5-5-7-7----------2-2-2-4-4----------5-5-5-7-7----------|
E|-------5-5----------------2-2----------------5-5----------|

e|------------------------------------------------------------------|
B|------------------------------------------------------------------|
G|-4-4-4-----------4-4-4-4----7-7-7--------------4-4-4--------------|
D|-4-4-4-4-4------------------7-7-7-7-7----------4-4-4-4-4----------|
A|-2-2-2-4-4------------------5-5-5-7-7----------2-2-2-4-4----------|
E|-------2-2------------------------5-5----------------2-2----------|
                   . . . .

e|-----------------------------------------------|
B|-----------------------------------------------|
G|-7-7-7--------------4-4-4------4-4-4-4---------|
D|-7-7-7-7-7----------4-4-4-4-4--4-4-4-4-4-4-4-4-|
A|-5-5-5-7-7----------2-2-2-4-4--2-2-2-2-4-4-4-4-|
E|-------5-5----------------2-2----------2-2-2-2-|

e|---------------------------------------|
B|---------------------------------------|
G|-----------2-4---2-4---2-4---2-4---7---|
D|-5~--------0-4---0-4---0-4---0-4---7-4-|   x2
A|-5~---2~-----2-----2-----2-----2---5-4-|
E|-3~---0~-----------------------------2-|

e|-------------------------------------------------|-----------|
B|-------------------------------------------------|-----------|
G|-----------2-4---2-4---2-4---2-4---7-------------|-7-7-7-----|
D|-5~--------0-4---0-4---0-4---0-4---7-4-5~--------|-7-7-7-7-7-|
A|-5~---2~-----2-----2-----2-----2---5-4-5~---2~---|-5-5-5-7-7-|
E|-3~---0~-----------------------------2-3~---0~---|-------5-5-|

End.
Tap to rate this tab
 
# A B C D E F G H I J K L M N O P Q R S T U V W X Y Z