Song name
# A B C D E F G H I J K L M N O P Q R S T U V W X Y Z

Piebald - American Heart tab

Help us improve GuitareTab! Take a short survey!
Piebald - American Heart
from "We are the only friends we have" 2002
Tabbed by John Staruk

My friend Tory figured this out and taught me, but I haven't seen many good tabs for it, so here it is.


Intro and Chorus
e|-----------------------------------------------|
B|-----------------------------------------------|
G|-----------------------------------------------|
D|-9-9-9-9-9-9-9-9-9-9-----9-9-9-9---6-6-6s7-7-7-|
A|-7-7-7-7-7-7-7-7-7-7-----7-7-7-7---x-x-x-x-x-x-|
E|-5-5-5-5-0-0-0-0-0-0-----7-7-7-7---4-4-4s5-5-5-|


Verse
e|4-4-4-4-4-4-2-2-2-2-2-2|
B|5-5-5-4-4-4-3-3-3-2-2-2|
G|4-4-4-4-4-4-2-2-2-2-2-2|
D|-----------------------|
A|-----------------------|
E|-----------------------|


Post-Chorus (towards the end)
e|-----------------------------------------------|
B|---------------------------------5p4-----------|
G|-------------------------------------6p4-------|
D|-9-9-9-9-9-------2-4s6-9-9-9-9-9---------6-----|
A|-7-7-7-7-7---2-4-------7-7-7-7-7---------------|
E|-5-5-5-5-0-------------5-5-5-5-0---------------|

e|-----------------------------------------------|
B|---------------------------------5p4-----5-----|
G|-------------------------------------6p4-------|
D|-9-9-9-9-9-------2-4s6-9-9-9-9-9---------------|
A|-7-7-7-7-7---2-4-------7-7-7-7-7---------------|
E|-5-5-5-5-0-------------5-5-5-5-0---------------|
Related for American Heart tab