Song name
# A B C D E F G H I J K L M N O P Q R S T U V W X Y Z

Piebald - Anthem Of New Boston tab

e-1---1------3---------5-------6---8-6---------------------------|
B-3----2--s5---5-----6---6-6h8---8-----6------2--------3-------5-|
G-2----------------7---------------------------------------------|
D-0-0---------------------------------------2----2---3---3---5---|
A-----------------------------------------0--------0-------0-----|
E----------------------------------------------------------------|

e-------5-6-5----------------------------------------------------|
B-5-6-8-------8-6-5------3--------5--------5---6-8--8------------|
G----------------------------------------------x-0--0------------|
D----------------------3---3----5---5----7---7-7-10-10--3-3-3-xx-|
A--------------------1--------3--------4-------5-7--7---3-3-3-xx-|
E-------------------------------------------------------1-1-1-xx-|

e---------------------------------------------------------------|
B-----------2~-0-2-3~-2-3-s5~-----------------------------------|
G---------------------------------------------------------------|
D-5-5-5-xx------------------------------------------------------|
A-5-5-5-xx------------------------------------------------------|
E-3-3-3-xx------------------------------------------------------|

I'll have the verses tabbed soon, I just didn't feel like doing them right now.
Tap to rate this tab
# A B C D E F G H I J K L M N O P Q R S T U V W X Y Z