Song name
# A B C D E F G H I J K L M N O P Q R S T U V W X Y Z

Piebald - All Senses Lost Interlude tab

e----------------------------------------------------------------|
B-------------------------------------------------------10s12s10-|
G------6-------7---------9--10-11-----11h12h13-------------------|
D---------------------------------------------9--9h10h11---------|
A-5h6h7---7h8h9---9h10h11---------12-----------------------------|
E----------------------------------------------------------------|

e---------------------------------------------------------------|
B-------------------------------------------------------10~-----|
G------6-------7---------9--10-11-----11h12h13------------------| x2
D---------------------------------------------9--9h10h11--------|
A-5h6h7---7h8h9---9h10h11---------12----------------------------|
E---------------------------------------------------------------|
Tap to rate this tab
# A B C D E F G H I J K L M N O P Q R S T U V W X Y Z