Song name
# A B C D E F G H I J K L M N O P Q R S T U V W X Y Z

Piebald - Benefits Of Ice Cream tab

Help us improve GuitareTab! Take a short survey!
The Benefits Of Ice Cream by Piebald
From "All Ears, All Eyes, All The Time" (2004)
Tab by Jared


Intro
e----------------------------------------------------------------|
B----------------------------------------------------------------|
G--7s6s4s2-------------1--111-111---7s6s4s2-------------666-666--|
D-0-0-0-0--7-7-7-7--5--2--222-222--0-0-0-0--7-7-7-7--5--555-555--| x2
A----------7-7-7-7--5--2--222-222-----------7-7-7-7--5--555-555--|
E----------5-5-5-5--3--0--000-000-----------5-5-5-5--3--333-333--|

Verse 1 (I know a place where...)
e----------------------------------------------------------------|
B----------------------------------------------------------------|
G--7s6s4s2-------------1--111-111---7s6s4s2-------------666-666--|
D-0-0-0-0--7-7-7-7--5--2--222-222--0-0-0-0--7-7-7-7--5--555-555--| x2
A----------7-7-7-7--5--2--222-222-----------7-7-7-7--5--555-555--|
E----------5-5-5-5--3--0--000-000-----------5-5-5-5--3--333-333--|

Little interlude thing
e--------------------------------------------------------------|
B--------------------------------------5-----------------------|
G-44-x-444-x-444-x-444-55-66-x-666-x-6-6-----------------------|
D-xx-x-xxx-x-xxx-x-xxx-xx-xx-x-xxx-x-x-x-----------------------|
A-22-x-222-x-222-x-222-33-44-x-444-x-4-4-----------------------|
E--------------------------------------------------------------|

Verse 2 (Hey most pesimisstic boy in L.A. ...)
e----------------------------------------------------------------|
B----------------------------------------------------------------|
G--7s6s4s2-------------1--111-111---7s6s4s2-------------666-666--|
D-0-0-0-0--7-7-7-7--5--2--222-222--0-0-0-0--7-7-7-7--5--555-555--| x2
A----------7-7-7-7--5--2--222-222-----------7-7-7-7--5--555-555--|
E----------5-5-5-5--3--0--000-000-----------5-5-5-5--3--333-333--|

Chorus (Just like the dreams you're in...)
e--------------------------------------------------------------|
B--------------------------------------------------------------|
G-44-x-444-x-444-x-444-55-66-x-666-x-666-666-55-44-x-444-x-444-|
D-xx-x-xxx-x-xxx-x-xxx-xx-xx-x-xxx-x-xxx-xxx-xx-xx-x-xxx-x-xxx-|
A-22-x-222-x-222-x-222-33-44-x-444-x-444-444-33-22-x-222-x-222-|
E--------------------------------------------------------------|

e--------------------------------------------------------------|
B--------------------------------------5-----------------------|
G-44-x-444-x-444-x-444-55-66-x-666-x-6-6-----------------------|
D-xx-x-xxx-x-xxx-x-xxx-xx-xx-x-xxx-x-x-x-----------------------|
A-22-x-222-x-222-x-222-33-44-x-444-x-4-4-----------------------|
E--------------------------------------------------------------|

Interlude after chorus
e--------------------------------------------------------------|
B--------------------------------------------------------------|
G-12-11-x-11-9-x-9-7-x-6---------------------------------------|
D--------------------------------------------------------------| x4
A--------------------------------------------------------------|
E--------------------------------------------------------------|

Verse 3 (What happens when...)
e----------------------------------------------------------------|
B----------------------------------------------------------------|
G--7s6s4s2-------------1--111-111---7s6s4s2-------------666-666--|
D-0-0-0-0--7-7-7-7--5--2--222-222--0-0-0-0--7-7-7-7--5--555-555--| x2
A----------7-7-7-7--5--2--222-222-----------7-7-7-7--5--555-555--|
E----------5-5-5-5--3--0--000-000-----------5-5-5-5--3--333-333--|

Chorus (Just like the dreams you're in...)
e--------------------------------------------------------------|
B--------------------------------------------------------------|
G-44-x-444-x-444-x-444-55-66-x-666-x-666-666-55-44-x-444-x-444-|
D-xx-x-xxx-x-xxx-x-xxx-xx-xx-x-xxx-x-xxx-xxx-xx-xx-x-xxx-x-xxx-|
A-22-x-222-x-222-x-222-33-44-x-444-x-444-444-33-22-x-222-x-222-|
E--------------------------------------------------------------|

e--------------------------------------------------------------|
B--------------------------------------5-----------------------|
G-44-x-444-x-444-x-444-55-66-x-666-x-6-6-----------------------|
D-xx-x-xxx-x-xxx-x-xxx-xx-xx-x-xxx-x-x-x-----------------------|
A-22-x-222-x-222-x-222-33-44-x-444-x-4-4-----------------------|
E--------------------------------------------------------------|

Bridge (When you walk out on...)
e--------------------------------------------------------------|
B--------------------------------------------------------------|
G-12-11--9-7--5-4----------------------------------------------|
D------------------10-5-7777-----------------------------------| x4
A------------------10-5-7777-----------------------------------|
E-------------------8-3-5555-----------------------------------|

Verse 4 (Keep your voice low...)
e----------------------------------------------------------------|
B----------------------------------------------------------------|
G--7s6s4s2-------------1--111-111---7s6s4s2-------------666-666--|
D-0-0-0-0--7-7-7-7--5--2--222-222--0-0-0-0--7-7-7-7--5--555-555--| x2
A----------7-7-7-7--5--2--222-222-----------7-7-7-7--5--555-555--|
E----------5-5-5-5--3--0--000-000-----------5-5-5-5--3--333-333--|


Interlude
e--------------------------------------------------------------|
B--------------------------------------------------------------|
G-12-11-x-11-9-x-9-7-x-6---------------------------------------|
D--------------------------------------------------------------| x12
A--------------------------------------------------------------|
E--------------------------------------------------------------|

Chorus (Just like the dreams you're in...)
e--------------------------------------------------------------|
B--------------------------------------------------------------|
G-44-x-444-x-444-x-444-55-66-x-666-x-666-666-55-44-x-444-x-444-|
D-xx-x-xxx-x-xxx-x-xxx-xx-xx-x-xxx-x-xxx-xxx-xx-xx-x-xxx-x-xxx-|
A-22-x-222-x-222-x-222-33-44-x-444-x-444-444-33-22-x-222-x-222-|
E--------------------------------------------------------------|

e--------------------------------------------------------------|
B--------------------------------------5-----------------------|
G-44-x-444-x-444-x-444-55-66-x-666-x-6-6-----------------------|
D-xx-x-xxx-x-xxx-x-xxx-xx-xx-x-xxx-x-x-x-----------------------| x3
A-22-x-222-x-222-x-222-33-44-x-444-x-4-4-----------------------|
E--------------------------------------------------------------|

End
e---
B---
G-4-
D-x-
A-2-
E---
Related for Benefits Of Ice Cream tab