Song name
# A B C D E F G H I J K L M N O P Q R S T U V W X Y Z

Piebald - Six-eighter tab

Piebald-The Six-Eighter
From "All Ears, All Eyes, All The Time"
Tab by Jared

Intro
e-6-6-6-6-6-6-6-6-6-6-6-6-6-6-6-6-6-6-6-6-6-6-6-6-------------------------|
B-6-6-6-6-6-6-6-6-6-6-6-6-6-6-6-6-6-6-6-6-6-6-6-6-------------------------|
G-6-6-6-6-6-6-6-6-6-6-6-6-6-6-6-6-6-6-6-6-6-6-6-6-------------------------|
D-6-6-6-6-6-6-8-8-8-8-8-8-6-6-6-6-6-6-8-8-8-8-8-8-4-4-4-4-4-4-6-6-6-6-6-6-|
A-4-4-4-4-4-4-8-8-8-8-8-8-4-4-4-4-4-4-8-8-8-8-8-8-4-4-4-4-4-4-6-6-6-6-6-6-|
E-------------6-6-6-6-6-6-------------6-6-6-6-6-6-2-2-2-2-2-2-4-4-4-4-4-4-|

e-------------------------6----------------------------------------------|
B-------------------------6----------------------------------------------|
G-------------------------6----------------------------------------------|
D-7-7-7-7-7-7-9-9-9-9-9-9-6----------------------------------------------|
A-7-7-7-7-7-7-9-9-9-9-9-9-4----------------------------------------------|
E-5-5-5-5-5-5-7-7-7-7-7-7------------------------------------------------|

Verse 1/Guitar 1
e-12--------------------------|
B-9--x15----------------------|
G-10-----9--11--6---9--11--6--| x2
D-----------------------------|
A-----------------------------|
E-----------------------------|

Verse 1/Guitar 2
e--------------------------------------------------------|
B-----6-------6-------6-------6--------------------------|
G------------------------------------9--11--6---9--11--6-|
D---6---6---6---6---6---6---6---6------------------------|
A-4-------4-------4-------4-------4----------------------|
E--------------------------------------------------------|

Pre-Chorus (Whoaaaa...)
e---------------------------------------|
B---------------------------------------|
G---------------------------------------|
D-2-2-2-2-2-2-2-2----4-4-4-4-4-4-4-4----|
A-2-2-2-2-2-2-2-2-x2-4-4-4-4-4-4-4-4----|x2
E-0-0-0-0-0-0-0-0----2-2-2-2-2-2-2-2----|

Chorus (Mistakes once or twice...)
e-4-4-4-4-4s--6-6-6-6-6-6-6---|
B-4-4-4-4-4s--6-6-6-6-6-6-6---|
G-6-6-6-6-6s--6-6-6-6-6-6-6---|
D-6-6-6-6-6s--8-8-8-8-8-8-8---|  x4
A-4-4-4-4-4s--8-8-8-8-8-8-8---|
E-------------6-6-6-6-6-6-6---|

Verse 2/Guitar 1
e-12--------------------------|
B-9--x15----------------------|
G-10-----9--11--6---9--11--6--| x2
D-----------------------------|
A-----------------------------|
E-----------------------------|

Verse 2/Guitar 2
e---------------------------------------------------------|
B-----6-------6-------6-------6---------------------------|
G------------------------------------9--11--6---9--11--6--|
D---6---6---6---6---6---6---6---6-------------------------| x2
A-4-------4-------4-------4-------4-----------------------|
E---------------------------------------------------------|


Pre-Chorus (Whoaaaa...)
e---------------------------------------|
B---------------------------------------|
G---------------------------------------|
D-2-2-2-2-2-2-2-2----4-4-4-4-4-4-4-4----|
A-2-2-2-2-2-2-2-2-x2-4-4-4-4-4-4-4-4----|x2
E-0-0-0-0-0-0-0-0----2-2-2-2-2-2-2-2----|

Bridge
e---------------------------------------------|
B-------------5555----------------------------|
G-666---------4444-4444-----------------------|
D-666---------2222-4444-x4-77777777-99999999--| x2
A-444-4-2-4-2------2222----77777777-99999999--|
E--------------------------55555555-77777777--|

Chorus
e-6-6-6-6-6-6-6-6-6-6-6-6-6-6-6-6-6-6-6-6-6-6-6-6-------------------------|
B-6-6-6-6-6-6-6-6-6-6-6-6-6-6-6-6-6-6-6-6-6-6-6-6-------------------------|
G-6-6-6-6-6-6-6-6-6-6-6-6-6-6-6-6-6-6-6-6-6-6-6-6-------------------------|
D-6-6-6-6-6-6-8-8-8-8-8-8-6-6-6-6-6-6-8-8-8-8-8-8-4-4-4-4-4-4-6-6-6-6-6-6-|
A-4-4-4-4-4-4-8-8-8-8-8-8-4-4-4-4-4-4-8-8-8-8-8-8-4-4-4-4-4-4-6-6-6-6-6-6-|
E-------------6-6-6-6-6-6-------------6-6-6-6-6-6-2-2-2-2-2-2-4-4-4-4-4-4-|

e-------------------------------------------------------------------------|
B-------------------------------------------------------------------------|
G-------------------------------------------------------------------------|x2
D-7-7-7-7-7-7-9-9-9-9-9-9-------------------------------------------------|
A-7-7-7-7-7-7-9-9-9-9-9-9-------------------------------------------------|
E-5-5-5-5-5-5-7-7-7-7-7-7-------------------------------------------------|

Outro
e-------------------------------------------------------------------------|
B------9------------------------------------------------------------------|
G-10-8---10-8----10----------11h10h8--------11----11-11-11-1111111111-----|
D-------------11----11----11---------11---10---10-10-10-10-1010101010-x2--| x3
A----------------------11---------------9---------9--9--9--9-9-9-9-9------|
E-------------------------------------------------------------------------|

Ending
e-------------------|
B-------------------|
G-----------10------|
D-----------11----8-|
A-----------11----8-|
E-9----6----9-----6-|
Tap to rate this tab
 
# A B C D E F G H I J K L M N O P Q R S T U V W X Y Z