Song name
# A B C D E F G H I J K L M N O P Q R S T U V W X Y Z

Piebald - New Boston Interlude tab

-------------------------------------------------------------------------------
			     NEW BOSTON INTERLUDE - Piebald
-------------------------------------------------------------------------------


Tabbed by: BaZ
Email: bas5432@hotmail.com

Tuning: standard

e|--1----1--------3----------5-------6---8-6-------------------------|
B|--3------3--3/5---5~-----6---6-6/8---8-----8-----------------------|
G|--2------------------5/7-------------------------------------------|
D|--0--0-------------------------------------------------------------|
A|-----0-------------------------------------------------------------|
E|-------------------------------------------------------------------|

e|--------------------------------5-6-5------------------------------|
B|------2-------3-------5--5-6-8--------8-6-5------------------------|
G|-------------------------------------------------------------------|
D|----2---2---3---3---4----------------------------------------------|
A|--0-------0-------0------------------------------------------------|
E|-------------------------------------------------------------------|

e|-----------------------------5-x-----------------------------------|
B|------3--------5-------5-----6-x-----------------------------------|
G|-----------------------------7-x--9-9------------------------------|
D|----3---3----5---5---7---7---7-x--9-9------------------------------|
A|--1--------3-------4---------5-x--7-7------------------------------|
E|-------------------------------------------------------------------|

e|-------------------------------------------------------------------|
B|-------------------------------------------------------------------|
G|--------------7----6--4-6-7--6-7/9~--------------------------------|
D|----------7-7-7-xx-------------------------------------------------|
A|--7-7-7-7-5-5-5-xx-------------------------------------------------|
E|--5-5-5-5-------xx-------------------------------------------------|

e|--1----1--------3----------5---6-8-10-10~--------------------------|
B|--3------3--3/5---5~-----6---6-------------------------------------|
G|--2------------------5/7-------------------------------------------|
D|--0--0-------------------------------------------------------------|
A|-----0-------------------------------------------------------------|
E|-------------------------------------------------------------------|

e|-------------------------------------------------------------------|
B|------2-------3-------5--5-6-3-------8\----------------------------|
G|-------------------------------5-2---------------------------------|
D|----2---2---3---3---4----------------------------------------------|
A|--0-------0-------0------------------------------------------------|
E|-------------------------------------------------------------------|

e|-------------------------------------------------------------------|
B|------3--------5-------5-----6-x--8-8------------------------------|
G|-----------------------------7-x--9-9------------------------------|
D|----3---3----5---5---7---7---7-x--9-9------------------------------|
A|--1--------3-------4---------5-x--7-7------------------------------|
E|-------------------------------------------------------------------|

e|-------------------------------------------------------------------|
B|-------------------------------------------------------------------|
G|--------------7----6--7--9~----------------------------------------|
D|----------7-7-7-xx-------------------------------------------------|
A|--7-7-7-7-5-5-5-xx-------------------------------------------------|
E|--5-5-5-5-------xx-------------------------------------------------|

| /  slide up
| \  slide down
| h  hammer-on
| p  pull-off
| ~  let ring with vibrato
| +  harmonic
| x  Mute note
===============================================================================
Tap to rate this tab
# A B C D E F G H I J K L M N O P Q R S T U V W X Y Z