Song name
# A B C D E F G H I J K L M N O P Q R S T U V W X Y Z

Piebald - Just A Simple Plan tab

This sounds pretty good for me. I'm just gonna put the chords down, you can figure out 
rhythm.

Intro/Chorus:
e|-----------------|--------------------------------|
b|-----------------|--------------------------------|
g|-----------------|--------------------------------|
D|-----------------|------------5-------------------|
A|-8-8-8-5--8-8-8-5|--8-8-8-5-8-------5--8--5--8----|
E|-------[X5}------|----------------8---------------|
                       Then

"You just might sleep yourself to death..."
e|--------------------------------------|
b|--------------------------------------|
g|-------------10-----------------------|
D|-3---7---8---10-----------------------|
A|-3---7---8---8------------------------|
E|-1---5---6----------------------------|


Verse: Palm Muting
e|---------------------------------------------------|
b|---------------------------------------------------|
g|-10-10--------------------5------------------------|
D|-10-10--12--10--8--8--5---5------------------------|
A|-8--7---12--10--8--8--5---3------------------------|
E|--------10--8---6--5--3----------------------------|

Back to Intro/Chorus

2nd Part of Chorus:
"It's just a simple plan to keep you away"

e|------|---------------------------------------------|
b|------|---------------------------------------------|
g|----3-|---8------8-9-10-----------------------------|
D|-3--3-|---8--8---8-9-10-----------------------------|
A|-3--1-|---6--8---6-7-8------------------------------|
E|-1----|------6--------------------------------------|
               [Then]

Back to Verse and then it goes to a louder part where he says "You're own kinda of 
leads to sleeping in".  Here you just play the Verse without the Palm Muting. Then back to 
palm muting.

Back to Intro/Chorus

Little break down before final Chorus:
e|------------------------------------------|
b|------------------------------------------|
g|------------------------------------------|
D|------------------------------------------|
A|----5--8--5--8------5--8--5--8----5--8----|
E|--8--------------8--------------8---------|

"UH!"

2nd Part Of Chorus.

Ending - Same as earlier but they add a C chord:

"You just might sleep yourself to death..."
e|--------------------------------------|
b|--------------------------------------|
g|-------------10---17------------------|
D|-3---7---8---10---17------------------|
A|-3---7---8---8----15------------------|
E|-1---5---6----------------------------|


End on F.

This sounds good to me, its the first tab I've tried on here because I just couldn't 
this song anywhere. Enjoy.
Tap to rate this tab
# A B C D E F G H I J K L M N O P Q R S T U V W X Y Z