Song name
# A B C D E F G H I J K L M N O P Q R S T U V W X Y Z

Pierce The Veil - Wonderless tab

Help us improve GuitareTab! Take a short survey!
Pierce The Veil
Wonderless [Intro]
Album: A Flair For The Dramatic

it's in standard tuning..^^

|------------------------------------------|
|------9---------9---------9----------9----|
|----6---9-----6---9-----6---9------6---9--|
|--7---------7---------7----------7--------|
|------------------------------------------|
|------------------------------------------|

|--------------------------------------|
|--------------------------------------|
|------11-9-11-9h11------11-9-11-9h11--|
|--0-0---------------0-0---------------|
|--------------------------------------|
|--------------------------------------|

|-------------------------------|
|------9---------9---------9----|
|----6---9-----6---9-----6---9--|
|--7---------7---------7--------|
|-------------------------------|
|-------------------------------|

|----------------------------------|
|--10-9p7--------------------------|
|--------------11-9-11-9h11---11~--|
|----------0-0----------------9~---|
|----------------------------------|
|----------------------------------|


that's the mini intro..^^



Related for Wonderless tab