Song name
# A B C D E F G H I J K L M N O P Q R S T U V W X Y Z

Pierce The Veil - Chemical Kids And Mechanical Brides tab

I dunno if this is correct..

just check and correct..^^
please avoid saying bad words..^^


guitar 1:
|-------------------------------------------------|
|-------------11~--------------11~----------------|
|-----8-10~------------8-10~------------8-10-6~---|
|-------------------9~----------------------------|
|--9~--------------------------------9~-----------|
|-------------------------------------------------|

continued...
|-----------------------------------|
|-----------------------------------|
|--10p8--10p8---10p8-6h8-8h10-10p6--|
|-----------------------------------| x4
|-----------------------------------|
|-----------------------------------|
               |- not sure here... -|
               |- this is wrong... -|


guitar 2:
|-----17-------|
|-----17-------|
|-----17-------| x a lot
|--------------|
|--------------|
|--------------|
      .

dunno if that is correct..
Tap to rate this tab
# A B C D E F G H I J K L M N O P Q R S T U V W X Y Z