Song name
# A B C D E F G H I J K L M N O P Q R S T U V W X Y Z

Pierce The Veil - The Cheap Bouquet tab

Drop D Tuning..

Intro only..

Guitar 1:[delay effects]
|----6~------1~-----|
|----8~------3~-----|
|-------------------| x a lot
|-------------------|
|-------------------|
|-------------------|

guitar 2:hits some notes somewhere in this part...

Guitar 2:at [Stay Young!!!...]
|-----------------------------------|
|-----------------------------------|
|-----------------------------------|
|-5---3h5------3h5-----3h5-----3h5--|
|-----------------------------------|
|---2------2-2-----2-2-----2-2------|

that's the intro i guess...^^
Tap to rate this tab
# A B C D E F G H I J K L M N O P Q R S T U V W X Y Z