Song name
# A B C D E F G H I J K L M N O P Q R S T U V W X Y Z

Pierce The Veil - Cheap Bouquet tab

Drop D Tuning..

Intro:

Guitar 1:[delay effects]
|----6~------1~-----|
|----8~------3~-----|
|-------------------| x a lot
|-------------------|
|-------------------|
|-------------------|

guitar 2:hits some notes somewhere in this part...

Guitar 2:at [Stay Young!!!...]
|-----------------------------------|
|-----------------------------------|
|-----------------------------------|
|-5---3h5------3h5-----3h5-----3h5--|
|-----------------------------------|
|---2------2-2-----2-2-----2-2------|

pre-chorus riff:
|-----------5--------|
|---------6---6-3----|
|-------7------------|
|---5/7--------------|
|--------------------|
|--------------------|

chorus:
|--6------1---6-5-----------------1-----------1-----------------|
|----6-3----3-----6-3-1----1h3~-----4h6-3-------4h6-4-3-2--1/3--|
|-------------------------------3-----------3-------------------|
|---------------------------------------------------------------|
|---------------------------------------------------------------|
|---------------------------------------------------------------|

verse:just figure it out..
|--------------------------666666--|
|--666666--444444--000000--666666--|
|--xxxxxx--555555--000000--000000--|
|--555555--555555--555555--000000--|
|--666666--000000--555555--555555--|
|--------------------------666666--|

pre-chorus 1:

guitar2(just figure out timing and pattern...)
|-----------------|-------------------|
|-----------------|-------------------|
|-----------------|-------------------|
|--5----5-----5---|---5-----8----10---|
|--5----5-----5---|---5-----8----10---|
|--5----2-----2---|---2-----8----10---|

guitar1
|------------------------------------|
|-4h6--------------------------------|
|---------5p0------------------------|
|---------------5p0------------------| x3
|---------------------5p0------------|
|------------------------------------|

pre-chorus riff:
|-----------5--------|
|---------6---6-3----|
|-------7------------|
|---5/7--------------|
|--------------------|
|--------------------|

chorus:
|--6------1---6-5-----------------1-----------1-----------------|
|----6-3----3-----6-3-1----1h3~-----4h6-3-------4h6-4-3-2--1/3--|
|-------------------------------3-----------3-------------------|
|---------------------------------------------------------------|
|---------------------------------------------------------------|
|---------------------------------------------------------------|

verse 2:
|---------10-11-10------------10-11-10-------|
|--8-8-11----------11--8-8-11----------11----|
|--------------------------------------------| x alot^^
|--------------------------------------------|
|--------------------------------------------|
|--------------------------------------------|

chorus:
|--6------1---6-5-----------------1-----------1-----------------|
|----6-3----3-----6-3-1----1h3~-----4h6-3-------4h6-4-3-2--1/3--|
|-------------------------------3-----------3-------------------|
|---------------------------------------------------------------|
|---------------------------------------------------------------|
|---------------------------------------------------------------|

end of chorus changes to:
guitar 1
|-----------8b10p8-----|
|---6b8----------------|
|----------------------|
|----------------------|
|----------------------|
|----------------------|

guitar 2
|---3~--------10~------|
|---6~--------11~------|
|----------------------|
|----------------------|
|----------------------|
|----------------------|

next parts are still unfigured out..^^
Tap to rate this tab
# A B C D E F G H I J K L M N O P Q R S T U V W X Y Z