Song name
# A B C D E F G H I J K L M N O P Q R S T U V W X Y Z

Pierce The Veil - Kissing In Cars tab

Help us improve GuitareTab! Take a short survey!
I took me a while to find this song out bt i finally did!
tunning is Full step down

(Verse)
When we wake up in your room...
D------------------------------------|
F------------------------------------|
A------------------4-----------------|
C------------------2-----------------|
G------------------4-----------------|
D------------------x-----------------|

Your face is the first thing I see...
D------------------------------------|
F------------------------------------|
A--------4-----------------4---------|
C--------6-----------------4---------|
G--------7-----------------6---------|
D--------x-----------------x---------|

(Pre-Chorus)

But it's all been done...
-------------------------------|
-------------------------------|
-------------------------------|
-------------7-----------------|
-------------7-----------------|
-------------5-----------------|

More than once, so I'll keep on trying...
-------------------------------|
-------------------------------|
-------------------------------|
--------------9----------------|
--------------9----------------|
--------------7----------------|

Oh God dont let me be the only...
-------------------------------|
-------------------------------|
-------------------------------|
--------------7----------------|
--------------7----------------|
--------------5----------------|

One who says...
-------------------------------|
-------------------------------|
-------------------------------|
--------------9----------------|
--------------9----------------|
--------------7----------------|

(Chorus)

No, at the top of our lungs, says...
-----------------------------------|
-----------------------------------|
-----------------1-----------------|
-----------------2-----------------|
-----------------2-----------------|
-----------------0-----------------|

No, no such thing as to young...
-----------------------------------|
-----------------------------------|
------------------2----------------|
------------------2----------------|
------------------0----------------|
------------------0----------------|

Second chances wont leave you alone...
------------------------------------|
------------------------------------|
-------x---------x--------------2---|
-------6---------4--------------2---|
-------4---------2--------------0---|

cause theres faith in love...
------------------------------------|
------------------------------------|
---------------2--------------------|
---------------2--------------------|
---------------0--------------------|
---------------0--------------------|

(Bridge)
---0-------2-|
---0---4---0-|
---2---2---2-|
---2---2---2-|
-------------|
-------------|
Related for Kissing In Cars tab