Guitaretab - guitar tabs
Song name
# A B C D E F G H I J K L M N O P Q R S T U V W X Y Z

Pierce The Veil - Kissing In Cars Live tab

So here is pretty much the base of the song heres the link to the video
http://youtube.com/watch?v=UulUy6MlUFI&feature=related

Tuning:Dropped C


    Intro/Verses
D-----------------|-----------------|
A--3------0/-0----|--3------0/-0----|
F--2------0/-0----|--2------0/-0----|
C---------7/-5----|---------7/-5----|
G--2------9/-7----|--2------9/-7----|
C-----------------|-----------------|

Pre-Chorus-"But its all been done..."
|-------------|
|-------0-----|
|--7----2-----|
|--5----2-----|
|--5----------|
|--5----------|

[ Tab from: http://www.guitaretab.com/p/pierce-the-veil/111052.html ]
Chorus
|-----------------|
|--------3--3-----|
|--7--7--2--2--7--|
|--0--5-----0--5--|
|--0--5--2--0--5--|
|--0--5--------5--|

Break 1-"Wont leave you alone, wont leave you alone"
|-------------------|
|-------------------|
|--5--8--5--8--5--8-|
|--3--6--3--6--3--6-|
|--3--6--3--6--3--6-|
|--3--6--3--6--3--6-|

Break 2-Chorus whispered
|-----------------|
|--------3--3-----|
|--7--7--2--2--7--|
|--0--5-----0--5--|
|--0--5--2--0--5--|
|--0--5--------5--|


Order:
Intro x2
Verse x4
Chorus
Verse x4
Chorus
Break 1
Break 2
Chorus
Related for Kissing In Cars Live tab
×
Kissing In Cars Live