Song name
# A B C D E F G H I J K L M N O P Q R S T U V W X Y Z

Pierce The Veil - Id Rather Die Than Be Famous tab

Help us improve GuitareTab! Take a short survey!
Tuning is just in drop D.


So i figured 2 ways of doing the into, its just switching 2 notes.



I prefer this way to do it.


 |--------------------------------|
 |--------------------------------|
 |--10-8----8-10------------------|
 |-------11------11-8-------------|
 |--------------------------------|
 |--------------------------------|
And just repeat however many times.


Or you can also do it this way.



 |--------------------------------|
 |--------------------------------|
 |--10-8-6-8-10-6-----------------|
 |----------------8---------------|
 |--------------------------------|
 |--------------------------------|
Related for Id Rather Die Than Be Famous tab