Song name
# A B C D E F G H I J K L M N O P Q R S T U V W X Y Z

Pierce The Veil - She Sings In The Morning tab

Okay so this is my very first tab, and i know its bad haha.But i hope u enjoy it.
e|------------------------------------------|
B|------------------------------------------|
G|------------------------------------------|
D|-3-5-0-6h7-0-5-0-6h7-3-5-0-66--5-3-5-3----|
A|------------------------------------------|
E|------------------------------------------|

e|------------------------------------------|
B|------------------------------------------|
G|------------------------------------------|
D|-3-5-0-6h7-0-5-0-6h7-3-5-0-66--6666-------|
A|------------------------------------5555--|
E|------------------------------------------|

e|------------------------------------------|
B|------------------------------------------|
G|------------------------------------------|
D|-999977776666777766664444-----------------|
A|------------------------------------------|
E|------------------------------------------|

e|------------------------------------------|
B|------------------------------------------|
G|------------------------------------------|
D|-99997777666677776666-4b------------------|
A|------------------------------------------|
E|------------------------------------------|

e|------------------------------------------|
B|------------------------------------------|
G|------------------------------------------|
D|-999977776666777766664444-----------------|
A|------------------------------------------|
E|------------------------------------------|

e|------------------------------------------|
B|------------------------------------------|
G|--------------6h7-8h9-11h12p11------------|
D|-999977776666-----------------------------|
A|------------------------------------------|
E|------------------------------------------|

Sorry thats all I got. :)
Tap to rate this tab
# A B C D E F G H I J K L M N O P Q R S T U V W X Y Z