Song name
# A B C D E F G H I J K L M N O P Q R S T U V W X Y Z

Pierce The Veil - She Sings In The Morning tab

-------------------------------------------------------------------------------
She sings in the morning - Pierce the veil
-------------------------------------------------------------------------------
Tabbed by: Huntersk4t3
MSN/EMAIL: Huntersk4t3@yahoo.com
AIM: Huntersk4t3

Tuning: Standard

KEY: S = slide      * = Harmonic          ~ = palm mute

e|---------------------------------------------------------------------------|
B|---------------------------------------------------------------------------|
G|---6----6s7------6----6s7------6----6s7---4--5-4--5------------------------|
D|4--6-4--6s7---0--6-0--6s7---3--6-3--6s7---4--5-4--5------------------------|
A|---------------------------------------------------------------------------|
E|---------------------------------------------------------------------------|

e|---------------------------------------------------------------------------|
B|---------------------------------------------------------------------------|
G|---6----6s7------6----6s7------6----6s7---6-666--3-333---------------------|
D|4--6-4--6s7---0--6-0--6s7---3--6-3--6s7---6-666--3-333---------------------|
A|---------------------------------------------------------------------------|
E|---------------------------------------------------------------------------|           
                              ~~~    ~~~


e|---------------------------------------------------------------------------|
B|---------------------------------------------------------------------------|
G|---------------------------------------------------------------------------|
D|9999-7777-6666-7777-6666-33333333--9999-7777-6666-7777-6666-3--------------|
A|---------------------------------------------------------------------------|
E|---------------------------------------------------------------------------|
                                                              *

e|---------------------------------------------------------------------------|
B|---------------------------------------------------------------------------|
G|---------------------------------------------------------------------------|
D|9999-7777-6666-7777-6666-33333333--9999-7777-6666-5s7-7s9-9s11-11s14-11----|
A|---------------------------------------------------------------------------|
E|---------------------------------------------------------------------------|
Tap to rate this tab
 
# A B C D E F G H I J K L M N O P Q R S T U V W X Y Z