Song name
# A B C D E F G H I J K L M N O P Q R S T U V W X Y Z

Pierce The Veil - Wonderless tab

rawr! yes i know some of...okay..a lot of it is wrong but i tried :P

e|----------------------------------------|
B|-----9--------9--------9--------9-------|
G|---6---6----6---6----6---6----6---6-----|
D|-7--------7--------7--------7-----------|
A|----------------------------------------|
E|----------------------------------------|

e|---------------------------------------|
B|----------6--------------6-------------|
G|---6---8----6-----6---8----6-----------|
D|-7---7----------7---7------------------|
A|---------------------------------------|
E|---------------------------------------|

e|------------------------------------------------|
B|-----9--------9--------9--------9---10---9------|
G|---6---6----6---6----6---6----6---6----6---6----|
D|-7--------7--------7--------7-------------------|
A|------------------------------------------------|
E|------------------------------------------------|

e|------------------------------------|
B|----9---9-------9-------------------|
G|----------8-----8-------------------|
D|-7----------7---7-------------------|
A|------------------------------------|
E|------------------------------------|

intro complete :D
Tap to rate this tab
# A B C D E F G H I J K L M N O P Q R S T U V W X Y Z